                                                                        S      1
,,,8HGPF-T050,22HAutodesk Inventor 2018,7Hunknown,32,38,7,99,15,,1.,2,2HG      1
MM,1,0.08,15H20181217.130409,0.01,10000.,8HY.U.HONG,,11,0,15H20181213.04G      2
5114;                                                                   G      3
     186       1                                                00000000D      1
     186             -99       1       0                               0D      2
     514       2                                                00010000D      3
     514                       1       1                               0D      4
     510       3                                                00010000D      5
     510            -101       1       1                               0D      6
     510       4                                                00010000D      7
     510             -99       1       1                               0D      8
     510       5                                                00010000D      9
     510             -99       1       1                               0D     10
     510       6                                                00010000D     11
     510             -99       1       1                               0D     12
     510       7                                                00010000D     13
     510             -99       1       1                               0D     14
     510       8                                                00010000D     15
     510             -99       1       1                               0D     16
     510       9                                                00010000D     17
     510             -99       1       1                               0D     18
     510      10                                                00010000D     19
     510             -99       1       1                               0D     20
     510      11                                                00010000D     21
     510             -99       1       1                               0D     22
     508      12                                                00010000D     23
     508                       1       1                               0D     24
     508      13                                                00010000D     25
     508                       1       1                               0D     26
     508      14                                                00010000D     27
     508                       1       1                               0D     28
     508      15                                                00010000D     29
     508                       1       1                               0D     30
     508      16                                                00010000D     31
     508                       1       1                               0D     32
     508      17                                                00010000D     33
     508                       1       1                               0D     34
     508      18                                                00010000D     35
     508                       1       1                               0D     36
     508      19                                                00010000D     37
     508                       1       1                               0D     38
     508      20                                                00010000D     39
     508                       1       1                               0D     40
     508      21                                                00010000D     41
     508                       1       1                               0D     42
     508      22                                                00010000D     43
     508                       1       1                               0D     44
     126      23                                                00010000D     45
     126       0               8       0                               0D     46
     126      31                                                00010000D     47
     126       0               8       0                               0D     48
     126      39                                                00010000D     49
     126       0               7       0                               0D     50
     126      46                                                00010000D     51
     126       0              10       0                               0D     52
     126      56                                                00010000D     53
     126       0               2       0                               0D     54
     126      58                                                00010000D     55
     126       0              10       0                               0D     56
     126      68                                                00010000D     57
     126       0              10       0                               0D     58
     126      78                                                00010000D     59
     126       0               2       0                               0D     60
     126      80                                                00010000D     61
     126       0              10       0                               0D     62
     126      90                                                00010000D     63
     126       0               3       0                               0D     64
     126      93                                                00010000D     65
     126       0              10       0                               0D     66
     126     103                                                00010000D     67
     126       0               2       0                               0D     68
     126     105                                                00010000D     69
     126       0              10       0                               0D     70
     126     115                                                00010000D     71
     126       0               4       0                               0D     72
     126     119                                                00010000D     73
     126       0              10       0                               0D     74
     128     129                                                00010000D     75
     128       0    -101      29       0                               0D     76
     128     158                                                00010000D     77
     128       0     -99      12       0                               0D     78
     128     170                                                00010000D     79
     128       0     -99       3       0                               0D     80
     128     173                                                00010000D     81
     128       0     -99      12       0                               0D     82
     128     185                                                00010000D     83
     128       0     -99      13       0                               0D     84
     128     198                                                00010000D     85
     128       0     -99      12       0                               0D     86
     128     210                                                00010000D     87
     128       0     -99       3       0                               0D     88
     128     213                                                00010000D     89
     128       0     -99      17       0                               0D     90
     128     230                                                00010000D     91
     128       0     -99       3       0                               0D     92
     502     233                                                00010000D     93
     502                       6       1                               0D     94
     504     239                                                00010001D     95
     504                       4       1                               0D     96
     406     243                                                00000000D     97
     406                       1      15                               0D     98
     314     244                                                00000200D     99
     314                       1       0                               0D    100
     314     245                                                00000200D    101
     314                       1       0                               0D    102
186,3,1,0,0,1,97;                                                      1P      1
514,9,5,1,7,1,9,1,11,1,13,1,15,1,17,1,19,1,21,1;                       3P      2
510,75,1,1,23;                                                         5P      3
510,77,1,1,25;                                                         7P      4
510,79,1,1,27;                                                         9P      5
510,81,1,1,29;                                                        11P      6
510,83,1,1,31;                                                        13P      7
510,85,1,1,33;                                                        15P      8
510,87,2,1,35,37;                                                     17P      9
510,89,1,1,39;                                                        19P     10
510,91,2,1,41,43;                                                     21P     11
508,4,0,95,1,0,0,0,95,2,0,0,0,95,3,0,0,0,95,3,1,0;                    23P     12
508,4,0,95,4,0,0,0,95,5,1,0,0,95,6,0,0,0,95,5,0,0;                    25P     13
508,1,0,95,4,1,0;                                                     27P     14
508,5,0,95,7,0,0,0,95,8,1,0,0,95,1,1,0,0,95,2,1,0,0,95,8,0,0;         29P     15
508,4,0,95,9,1,0,0,95,10,1,0,0,95,11,1,0,0,95,10,0,0;                 31P     16
508,4,0,95,11,0,0,0,95,12,1,0,0,95,13,0,0,0,95,12,0,0;                33P     17
508,1,0,95,9,0,0;                                                     35P     18
508,1,0,95,6,1,0;                                                     37P     19
508,4,0,95,13,1,0,0,95,14,1,0,0,95,15,1,0,0,95,14,0,0;                39P     20
508,1,0,95,15,0,0;                                                    41P     21
508,1,0,95,7,1,0;                                                     43P     22
126,4,2,0,0,0,0,-3.14159265358979,-3.14159265358979,                  45P     23
-3.14159265358979,-1.5707963267949,-1.5707963267949,                  45P     24
-6.93889390390723D-17,-6.93889390390723D-17,                          45P     25
-6.93889390390723D-17,1.,0.707106781186548,1.,0.707106781186548,      45P     26
1.,0.25,-3.06161699786838D-17,-0.2,0.25,-0.25,-0.2,                   45P     27
-1.53080849893419D-17,-0.25,-0.2,-0.25,-0.25,-0.2,-0.25,              45P     28
-1.73472347597681D-17,-0.2,-3.14159265358979,                         45P     29
-6.93889390390723D-17,0.,0.,0.;                                       45P     30
126,4,2,0,0,0,0,-6.93889390390723D-17,-6.93889390390723D-17,          47P     31
-6.93889390390723D-17,1.5707963267949,1.5707963267949,                47P     32
3.14159265358979,3.14159265358979,3.14159265358979,1.,                47P     33
0.707106781186548,1.,0.707106781186548,1.,-0.25,                      47P     34
-1.73472347597681D-17,-0.2,-0.25,0.25,-0.2,                           47P     35
-1.53080849893419D-17,0.25,-0.2,0.25,0.25,-0.2,0.25,                  47P     36
3.06161699786838D-17,-0.2,-6.93889390390723D-17,                      47P     37
3.14159265358979,0.,0.,0.;                                            47P     38
126,2,2,0,0,0,0,-1.5707963267949,-1.5707963267949,                    49P     39
-1.5707963267949,-0.221314442347791,-0.221314442347791,               49P     40
-0.221314442347791,1.,0.780868809443031,1.,                           49P     41
-1.56907871140755D-17,-1.73472347597681D-17,0.,-0.205,                49P     42
-1.73472347597681D-17,6.27631484563019D-18,-0.25,                     49P     43
-1.73472347597681D-17,-0.2,-1.5707963267949,-0.221314442347791,       49P     44
0.,0.,0.;                                                             49P     45
126,8,2,0,1,0,0,-3.14159265358979,-3.14159265358979,                  51P     46
-3.14159265358979,-1.5707963267949,-1.5707963267949,0.,0.,            51P     47
1.5707963267949,1.5707963267949,3.14159265358979,                     51P     48
3.14159265358979,3.14159265358979,1.,0.707106781186547,1.,            51P     49
0.707106781186548,1.,0.707106781186548,1.,0.707106781186547,1.,       51P     50
-1.1,1.34711147906209D-16,-85.,-1.1,1.1,-85.,                         51P     51
6.73555739531044D-17,1.1,-85.,1.1,1.1,-85.,1.1,0.,-85.,1.1,-1.1,      51P     52
-85.,6.73555739531044D-17,-1.1,-85.,-1.1,-1.1,-85.,-1.1,              51P     53
-1.34711147906209D-16,-85.,-3.14159265358979,3.14159265358979,        51P     54
0.,0.,0.;                                                             51P     55
126,1,1,0,0,1,0,-63.6363636363636,-63.6363636363636,0.,0.,1.,1.,      53P     56
-1.1,0.,-85.,-1.1,0.,-15.,-63.6363636363636,0.,0.,0.,0.;              53P     57
126,8,2,0,1,0,0,-3.14159265358979,-3.14159265358979,                  55P     58
-3.14159265358979,-1.5707963267949,-1.5707963267949,0.,0.,            55P     59
1.5707963267949,1.5707963267949,3.14159265358979,                     55P     60
3.14159265358979,3.14159265358979,1.,0.707106781186547,1.,            55P     61
0.707106781186548,1.,0.707106781186548,1.,0.707106781186547,1.,       55P     62
-1.1,-1.34711147906209D-16,-15.,-1.1,-1.1,-15.,                       55P     63
6.73555739531044D-17,-1.1,-15.,1.1,-1.1,-15.,1.1,0.,-15.,1.1,         55P     64
1.1,-15.,6.73555739531044D-17,1.1,-15.,-1.1,1.1,-15.,-1.1,            55P     65
1.34711147906209D-16,-15.,-3.14159265358979,3.14159265358979,0.,      55P     66
0.,0.;                                                                55P     67
126,8,2,0,1,0,0,-3.14159265358979,-3.14159265358979,                  57P     68
-3.14159265358979,-1.5707963267949,-1.5707963267949,0.,0.,            57P     69
1.5707963267949,1.5707963267949,3.14159265358979,                     57P     70
3.14159265358979,3.14159265358979,1.,0.707106781186548,1.,            57P     71
0.707106781186548,1.,0.707106781186548,1.,0.707106781186548,1.,       57P     72
0.25,-3.06161699786838D-17,0.,0.25,-0.25,0.,                          57P     73
-1.53080849893419D-17,-0.25,0.,-0.25,-0.25,0.,-0.25,0.,0.,-0.25,      57P     74
0.25,0.,-1.53080849893419D-17,0.25,0.,0.25,0.25,0.,0.25,              57P     75
3.06161699786838D-17,0.,-3.14159265358979,3.14159265358979,0.,        57P     76
0.,0.;                                                                57P     77
126,1,1,0,0,1,0,0.,0.,0.8,0.8,1.,1.,0.25,0.,0.,0.25,0.,-0.2,0.,       59P     78
0.8,0.,0.,0.;                                                         59P     79
126,8,2,0,1,0,0,-3.14159265358979,-3.14159265358979,                  61P     80
-3.14159265358979,-1.5707963267949,-1.5707963267949,0.,0.,            61P     81
1.5707963267949,1.5707963267949,3.14159265358979,                     61P     82
3.14159265358979,3.14159265358979,1.,0.707106781186547,1.,            61P     83
0.707106781186548,1.,0.707106781186548,1.,0.707106781186547,1.,       61P     84
1.2,1.46957615897682D-16,-15.,1.2,1.2,-15.,                           61P     85
-7.34788079488412D-17,1.2,-15.,-1.2,1.2,-15.,-1.2,0.,-15.,-1.2,       61P     86
-1.2,-15.,-7.34788079488412D-17,-1.2,-15.,1.2,-1.2,-15.,1.2,          61P     87
-1.46957615897682D-16,-15.,-3.14159265358979,3.14159265358979,        61P     88
0.,0.,0.;                                                             61P     89
126,1,1,0,0,1,0,-0.157134840263678,-0.157134840263678,                63P     90
0.157134840263677,0.157134840263677,1.,1.,1.2,0.,-15.,1.5,0.,         63P     91
-14.7,-0.157134840263678,0.157134840263677,0.,0.,0.;                  63P     92
126,8,2,0,1,0,0,-3.14159265358979,-3.14159265358979,                  65P     93
-3.14159265358979,-1.5707963267949,-1.5707963267949,0.,0.,            65P     94
1.5707963267949,1.5707963267949,3.14159265358979,                     65P     95
3.14159265358979,3.14159265358979,1.,0.707106781186548,1.,            65P     96
0.707106781186548,1.,0.707106781186548,1.,0.707106781186548,1.,       65P     97
1.5,-1.83697019872103D-16,-14.7,1.5,-1.5,-14.7,                       65P     98
-9.18485099360515D-17,-1.5,-14.7,-1.5,-1.5,-14.7,-1.5,0.,-14.7,       65P     99
-1.5,1.5,-14.7,-9.18485099360515D-17,1.5,-14.7,1.5,1.5,-14.7,         65P    100
1.5,1.83697019872103D-16,-14.7,-3.14159265358979,                     65P    101
3.14159265358979,0.,0.,0.;                                            65P    102
126,1,1,0,0,1,0,-9.8,-9.8,-0.2,-0.2,1.,1.,1.5,0.,-14.7,1.5,0.,        67P    103
-0.3,-9.8,-0.2,0.,0.,0.;                                              67P    104
126,8,2,0,1,0,0,-3.14159265358979,-3.14159265358979,                  69P    105
-3.14159265358979,-1.5707963267949,-1.5707963267949,0.,0.,            69P    106
1.5707963267949,1.5707963267949,3.14159265358979,                     69P    107
3.14159265358979,3.14159265358979,1.,0.707106781186548,1.,            69P    108
0.707106781186548,1.,0.707106781186548,1.,0.707106781186548,1.,       69P    109
1.5,1.83697019872103D-16,-0.3,1.5,1.5,-0.3,                           69P    110
-9.18485099360515D-17,1.5,-0.3,-1.5,1.5,-0.3,-1.5,0.,-0.3,-1.5,       69P    111
-1.5,-0.3,-9.18485099360515D-17,-1.5,-0.3,1.5,-1.5,-0.3,1.5,          69P    112
-1.83697019872103D-16,-0.3,-3.14159265358979,3.14159265358979,        69P    113
0.,0.,0.;                                                             69P    114
126,1,1,0,0,1,0,-0.157134840263677,-0.157134840263677,                71P    115
0.157134840263677,0.157134840263677,1.,1.,1.5,0.,-0.3,1.2,0.,         71P    116
-6.93889390390723D-17,-0.157134840263677,0.157134840263677,0.,        71P    117
0.,0.;                                                                71P    118
126,8,2,0,1,0,0,-3.14159265358979,-3.14159265358979,                  73P    119
-3.14159265358979,-1.5707963267949,-1.5707963267949,0.,0.,            73P    120
1.5707963267949,1.5707963267949,3.14159265358979,                     73P    121
3.14159265358979,3.14159265358979,1.,0.707106781186547,1.,            73P    122
0.707106781186548,1.,0.707106781186548,1.,0.707106781186547,1.,       73P    123
1.2,-1.46957615897682D-16,0.,1.2,-1.2,0.,-7.34788079488412D-17,       73P    124
-1.2,0.,-1.2,-1.2,0.,-1.2,0.,0.,-1.2,1.2,0.,                          73P    125
-7.34788079488412D-17,1.2,0.,1.2,1.2,0.,1.2,                          73P    126
1.46957615897682D-16,0.,-3.14159265358979,3.14159265358979,0.,        73P    127
0.,0.;                                                                73P    128
128,2,8,2,2,0,1,0,0,1,0.221314442347791,0.221314442347791,            75P    129
0.221314442347791,1.5707963267949,1.5707963267949,                    75P    130
1.5707963267949,-3.14159265358979,-3.14159265358979,                  75P    131
-3.14159265358979,-1.5707963267949,-1.5707963267949,0.,0.,            75P    132
1.5707963267949,1.5707963267949,3.14159265358979,                     75P    133
3.14159265358979,3.14159265358979,1.,0.780868809443031,1.,            75P    134
0.707106781186548,0.552157630374233,0.707106781186548,1.,             75P    135
0.780868809443031,1.,0.707106781186548,0.552157630374233,             75P    136
0.707106781186548,1.,0.780868809443031,1.,0.707106781186548,          75P    137
0.552157630374233,0.707106781186548,1.,0.780868809443031,1.,          75P    138
0.707106781186548,0.552157630374233,0.707106781186548,1.,             75P    139
0.780868809443031,1.,-1.56907871140755D-17,                           75P    140
-1.73472347597681D-17,0.,-0.205,-1.73472347597681D-17,                75P    141
6.27631484563019D-18,-0.25,-1.73472347597681D-17,-0.2,                75P    142
-1.56907871140755D-17,-3.30380218738435D-17,0.,-0.205,-0.205,         75P    143
6.27631484563019D-18,-0.25,-0.25,-0.2,0.,-3.30380218738435D-17,       75P    144
0.,0.,-0.205,0.,0.,-0.25,-0.2,1.56907871140755D-17,                   75P    145
-3.30380218738435D-17,0.,0.205,-0.205,-6.27631484563019D-18,          75P    146
0.25,-0.25,-0.2,1.56907871140755D-17,-1.73472347597681D-17,0.,        75P    147
0.205,-1.73472347597681D-17,-6.27631484563019D-18,0.25,               75P    148
-1.73472347597681D-17,-0.2,1.56907871140755D-17,                      75P    149
-1.65644764569261D-18,0.,0.205,0.205,-6.27631484563019D-18,0.25,      75P    150
0.25,-0.2,0.,-1.65644764569261D-18,0.,0.,0.205,0.,0.,0.25,-0.2,       75P    151
-1.56907871140755D-17,-1.65644764569261D-18,0.,-0.205,0.205,          75P    152
6.27631484563019D-18,-0.25,0.25,-0.2,-1.56907871140755D-17,           75P    153
-1.73472347597681D-17,0.,-0.205,-1.73472347597681D-17,                75P    154
6.27631484563019D-18,-0.25,-1.73472347597681D-17,-0.2,                75P    155
0.221314442347791,1.5707963267949,-3.14159265358979,                  75P    156
3.14159265358979;                                                     75P    157
128,1,8,1,2,0,1,0,0,1,0.,0.,63.6363636363636,63.6363636363636,        77P    158
-3.14159265358979,-3.14159265358979,-3.14159265358979,                77P    159
-1.5707963267949,-1.5707963267949,0.,0.,1.5707963267949,              77P    160
1.5707963267949,3.14159265358979,3.14159265358979,                    77P    161
3.14159265358979,1.,1.,0.707106781186548,0.707106781186548,1.,        77P    162
1.,0.707106781186548,0.707106781186548,1.,1.,0.707106781186548,       77P    163
0.707106781186548,1.,1.,0.707106781186548,0.707106781186548,1.,       77P    164
1.,-1.1,0.,-85.,-1.1,0.,-15.,-1.1,1.1,-85.,-1.1,1.1,-15.,0.,1.1,      77P    165
-85.,0.,1.1,-15.,1.1,1.1,-85.,1.1,1.1,-15.,1.1,0.,-85.,1.1,0.,        77P    166
-15.,1.1,-1.1,-85.,1.1,-1.1,-15.,0.,-1.1,-85.,0.,-1.1,-15.,-1.1,      77P    167
-1.1,-85.,-1.1,-1.1,-15.,-1.1,0.,-85.,-1.1,0.,-15.,0.,                77P    168
63.6363636363636,-3.14159265358979,3.14159265358979;                  77P    169
128,1,1,1,1,0,0,1,0,0,-0.111,-0.111,0.111,0.111,-0.111,-0.111,        79P    170
0.111,0.111,1.,1.,1.,1.,1.11,-1.11,-85.,-1.11,-1.11,-85.,1.11,        79P    171
1.11,-85.,-1.11,1.11,-85.,-0.111,0.111,-0.111,0.111;                  79P    172
128,1,8,1,2,0,1,0,0,1,0.,0.,0.8,0.8,-3.14159265358979,                81P    173
-3.14159265358979,-3.14159265358979,-1.5707963267949,                 81P    174
-1.5707963267949,0.,0.,1.5707963267949,1.5707963267949,               81P    175
3.14159265358979,3.14159265358979,3.14159265358979,1.,1.,             81P    176
0.707106781186548,0.707106781186548,1.,1.,0.707106781186548,          81P    177
0.707106781186548,1.,1.,0.707106781186548,0.707106781186548,1.,       81P    178
1.,0.707106781186548,0.707106781186548,1.,1.,0.25,0.,0.,0.25,0.,      81P    179
-0.2,0.25,-0.25,0.,0.25,-0.25,-0.2,0.,-0.25,0.,0.,-0.25,-0.2,         81P    180
-0.25,-0.25,0.,-0.25,-0.25,-0.2,-0.25,0.,0.,-0.25,0.,-0.2,-0.25,      81P    181
0.25,0.,-0.25,0.25,-0.2,0.,0.25,0.,0.,0.25,-0.2,0.25,0.25,0.,         81P    182
0.25,0.25,-0.2,0.25,0.,0.,0.25,0.,-0.2,0.,0.8,-3.14159265358979,      81P    183
3.14159265358979;                                                     81P    184
128,1,8,1,2,0,1,0,0,1,-0.157134840263677,-0.157134840263677,          83P    185
0.157134840263678,0.157134840263678,-3.14159265358979,                83P    186
-3.14159265358979,-3.14159265358979,-1.5707963267949,                 83P    187
-1.5707963267949,0.,0.,1.5707963267949,1.5707963267949,               83P    188
3.14159265358979,3.14159265358979,3.14159265358979,1.,1.,             83P    189
0.707106781186548,0.707106781186548,1.,1.,0.707106781186548,          83P    190
0.707106781186548,1.,1.,0.707106781186548,0.707106781186548,1.,       83P    191
1.,0.707106781186548,0.707106781186548,1.,1.,1.2,0.,-15.,1.5,0.,      83P    192
-14.7,1.2,-1.2,-15.,1.5,-1.5,-14.7,0.,-1.2,-15.,0.,-1.5,-14.7,        83P    193
-1.2,-1.2,-15.,-1.5,-1.5,-14.7,-1.2,0.,-15.,-1.5,0.,-14.7,-1.2,       83P    194
1.2,-15.,-1.5,1.5,-14.7,0.,1.2,-15.,0.,1.5,-14.7,1.2,1.2,-15.,        83P    195
1.5,1.5,-14.7,1.2,0.,-15.,1.5,0.,-14.7,-0.157134840263677,            83P    196
0.157134840263678,-3.14159265358979,3.14159265358979;                 83P    197
128,1,8,1,2,0,1,0,0,1,0.2,0.2,9.8,9.8,-3.14159265358979,              85P    198
-3.14159265358979,-3.14159265358979,-1.5707963267949,                 85P    199
-1.5707963267949,0.,0.,1.5707963267949,1.5707963267949,               85P    200
3.14159265358979,3.14159265358979,3.14159265358979,1.,1.,             85P    201
0.707106781186548,0.707106781186548,1.,1.,0.707106781186548,          85P    202
0.707106781186548,1.,1.,0.707106781186548,0.707106781186548,1.,       85P    203
1.,0.707106781186548,0.707106781186548,1.,1.,1.5,0.,-14.7,1.5,        85P    204
0.,-0.3,1.5,-1.5,-14.7,1.5,-1.5,-0.3,0.,-1.5,-14.7,0.,-1.5,-0.3,      85P    205
-1.5,-1.5,-14.7,-1.5,-1.5,-0.3,-1.5,0.,-14.7,-1.5,0.,-0.3,-1.5,       85P    206
1.5,-14.7,-1.5,1.5,-0.3,0.,1.5,-14.7,0.,1.5,-0.3,1.5,1.5,-14.7,       85P    207
1.5,1.5,-0.3,1.5,0.,-14.7,1.5,0.,-0.3,0.2,9.8,-3.14159265358979,      85P    208
3.14159265358979;                                                     85P    209
128,1,1,1,1,0,0,1,0,0,-0.121,-0.121,0.121,0.121,-0.121,-0.121,        87P    210
0.121,0.121,1.,1.,1.,1.,1.21,-1.21,-15.,-1.21,-1.21,-15.,1.21,        87P    211
1.21,-15.,-1.21,1.21,-15.,-0.121,0.121,-0.121,0.121;                  87P    212
128,1,8,1,2,0,1,0,0,1,-0.157134840263677,-0.157134840263677,          89P    213
0.157134840263677,0.157134840263677,-3.14159265358979,                89P    214
-3.14159265358979,-3.14159265358979,-1.5707963267949,                 89P    215
-1.5707963267949,0.,0.,1.5707963267949,1.5707963267949,               89P    216
3.14159265358979,3.14159265358979,3.14159265358979,1.,1.,             89P    217
0.707106781186548,0.707106781186548,1.,1.,0.707106781186548,          89P    218
0.707106781186548,1.,1.,0.707106781186548,0.707106781186548,1.,       89P    219
1.,0.707106781186548,0.707106781186548,1.,1.,1.5,0.,-0.3,1.2,0.,      89P    220
-6.93889390390723D-17,1.5,-1.5,-0.3,1.2,-1.2,                         89P    221
-6.93889390390723D-17,0.,-1.5,-0.3,0.,-1.2,                           89P    222
-6.93889390390723D-17,-1.5,-1.5,-0.3,-1.2,-1.2,                       89P    223
-6.93889390390723D-17,-1.5,0.,-0.3,-1.2,0.,                           89P    224
-6.93889390390723D-17,-1.5,1.5,-0.3,-1.2,1.2,                         89P    225
-6.93889390390723D-17,0.,1.5,-0.3,0.,1.2,-6.93889390390723D-17,       89P    226
1.5,1.5,-0.3,1.2,1.2,-6.93889390390723D-17,1.5,0.,-0.3,1.2,0.,        89P    227
-6.93889390390723D-17,-0.157134840263677,0.157134840263677,           89P    228
-3.14159265358979,3.14159265358979;                                   89P    229
128,1,1,1,1,0,0,1,0,0,-0.121,-0.121,0.121,0.121,-0.121,-0.121,        91P    230
0.121,0.121,1.,1.,1.,1.,-1.21,-1.21,0.,1.21,-1.21,0.,-1.21,1.21,      91P    231
0.,1.21,1.21,0.,-0.121,0.121,-0.121,0.121;                            91P    232
502,10,0.25,3.06161699786838D-17,-0.2,-0.25,                          93P    233
-1.73472347597681D-17,-0.2,-1.56907871140755D-17,                     93P    234
-1.73472347597681D-17,0.,-1.1,1.34711147906209D-16,-85.,-1.1,         93P    235
1.34711147906209D-16,-15.,0.25,3.06161699786838D-17,0.,1.2,           93P    236
1.46957615897682D-16,-15.,1.5,-1.83697019872103D-16,-14.7,1.5,        93P    237
1.83697019872103D-16,-0.3,1.2,-1.46957615897682D-16,0.;               93P    238
504,15,45,93,1,93,2,47,93,2,93,1,49,93,3,93,2,51,93,4,93,4,53,        95P    239
93,4,93,5,55,93,5,93,5,57,93,6,93,6,59,93,6,93,1,61,93,7,93,7,        95P    240
63,93,7,93,8,65,93,8,93,8,67,93,8,93,9,69,93,9,93,9,71,93,9,93,       95P    241
10,73,93,10,93,10;                                                    95P    242
406,1,10H솔리드5;                                                  97P    243
314,74.9019607843137,74.9019607843137,74.9019607843137,;              99P    244
314,80.,0.,0.,;                                                      101P    245
S      1G      3D    102P    245                                        T      1
