ISO-10303-21;
HEADER;
/* Generated by software containing ST-Developer
 * from STEP Tools, Inc. (www.steptools.com) 
 */

FILE_DESCRIPTION(
/* description */ (''),
/* implementation_level */ '2;1');

FILE_NAME(
/* name */ 
'C:\\Users\\user\\Desktop\\FA\X2\C2DCC2A4D15C\X0\\\3D \X2\B3C4BA74\X0\\\
GPF-T026\\GPF-T026.stp',
/* time_stamp */ '2018-12-17T12:00:15+09:00',
/* author */ ('user'),
/* organization */ (''),
/* preprocessor_version */ 'ST-DEVELOPER v17',
/* originating_system */ 'Autodesk Inventor 2018',
/* authorisation */ '');

FILE_SCHEMA (('AUTOMOTIVE_DESIGN { 1 0 10303 214 3 1 1 }'));
ENDSEC;

DATA;
#10=MECHANICAL_DESIGN_GEOMETRIC_PRESENTATION_REPRESENTATION('',(#15,#16),
#482);
#11=SHAPE_REPRESENTATION_RELATIONSHIP('SRR','None',#489,#12);
#12=ADVANCED_BREP_SHAPE_REPRESENTATION('',(#13),#481);
#13=MANIFOLD_SOLID_BREP('\X2\C194B9ACB4DC\X0\5',#266);
#14=SPHERICAL_SURFACE('',#304,0.25);
#15=STYLED_ITEM('',(#499),#257);
#16=STYLED_ITEM('',(#498),#13);
#17=FACE_BOUND('',#65,.T.);
#18=FACE_BOUND('',#68,.T.);
#19=FACE_BOUND('',#77,.T.);
#20=CYLINDRICAL_SURFACE('',#292,1.25);
#21=CYLINDRICAL_SURFACE('',#300,0.25);
#22=CYLINDRICAL_SURFACE('',#309,0.25);
#23=CYLINDRICAL_SURFACE('',#315,0.55);
#24=CYLINDRICAL_SURFACE('',#316,0.5);
#25=CONICAL_SURFACE('',#289,1.2,0.785398163397448);
#26=CONICAL_SURFACE('',#296,1.2,0.785398163397449);
#27=CIRCLE('',#288,0.55);
#28=CIRCLE('',#290,1.15);
#29=CIRCLE('',#291,1.25);
#30=CIRCLE('',#293,1.25);
#31=CIRCLE('',#295,0.5);
#32=CIRCLE('',#297,1.15);
#33=CIRCLE('',#299,0.55);
#34=CIRCLE('',#301,0.25);
#35=CIRCLE('',#302,0.25);
#36=CIRCLE('',#303,0.25);
#37=CIRCLE('',#305,0.25);
#38=CIRCLE('',#306,0.25);
#39=CIRCLE('',#308,0.55);
#40=CIRCLE('',#310,0.25);
#41=CIRCLE('',#313,0.55);
#42=CIRCLE('',#317,0.5);
#43=FACE_OUTER_BOUND('',#60,.T.);
#44=FACE_OUTER_BOUND('',#61,.T.);
#45=FACE_OUTER_BOUND('',#62,.T.);
#46=FACE_OUTER_BOUND('',#63,.T.);
#47=FACE_OUTER_BOUND('',#64,.T.);
#48=FACE_OUTER_BOUND('',#66,.T.);
#49=FACE_OUTER_BOUND('',#67,.T.);
#50=FACE_OUTER_BOUND('',#69,.T.);
#51=FACE_OUTER_BOUND('',#70,.T.);
#52=FACE_OUTER_BOUND('',#71,.T.);
#53=FACE_OUTER_BOUND('',#72,.T.);
#54=FACE_OUTER_BOUND('',#73,.T.);
#55=FACE_OUTER_BOUND('',#74,.T.);
#56=FACE_OUTER_BOUND('',#75,.T.);
#57=FACE_OUTER_BOUND('',#76,.T.);
#58=FACE_OUTER_BOUND('',#78,.T.);
#59=FACE_OUTER_BOUND('',#79,.T.);
#60=EDGE_LOOP('',(#172,#173,#174,#175));
#61=EDGE_LOOP('',(#176,#177));
#62=EDGE_LOOP('',(#178,#179,#180,#181));
#63=EDGE_LOOP('',(#182,#183,#184,#185));
#64=EDGE_LOOP('',(#186));
#65=EDGE_LOOP('',(#187));
#66=EDGE_LOOP('',(#188,#189,#190,#191));
#67=EDGE_LOOP('',(#192));
#68=EDGE_LOOP('',(#193,#194));
#69=EDGE_LOOP('',(#195,#196,#197,#198,#199));
#70=EDGE_LOOP('',(#200,#201,#202,#203,#204));
#71=EDGE_LOOP('',(#205,#206,#207,#208));
#72=EDGE_LOOP('',(#209,#210,#211,#212));
#73=EDGE_LOOP('',(#213,#214,#215,#216,#217));
#74=EDGE_LOOP('',(#218,#219,#220,#221));
#75=EDGE_LOOP('',(#222,#223,#224,#225,#226));
#76=EDGE_LOOP('',(#227,#228,#229,#230));
#77=EDGE_LOOP('',(#231,#232,#233,#234));
#78=EDGE_LOOP('',(#235,#236,#237,#238));
#79=EDGE_LOOP('',(#239));
#80=LINE('',#409,#98);
#81=LINE('',#411,#99);
#82=LINE('',#413,#100);
#83=LINE('',#414,#101);
#84=LINE('',#421,#102);
#85=LINE('',#425,#103);
#86=LINE('',#432,#104);
#87=LINE('',#439,#105);
#88=LINE('',#445,#106);
#89=LINE('',#453,#107);
#90=LINE('',#456,#108);
#91=LINE('',#459,#109);
#92=LINE('',#462,#110);
#93=LINE('',#465,#111);
#94=LINE('',#466,#112);
#95=LINE('',#469,#113);
#96=LINE('',#472,#114);
#97=LINE('',#477,#115);
#98=VECTOR('',#323,10.);
#99=VECTOR('',#324,10.);
#100=VECTOR('',#325,10.);
#101=VECTOR('',#326,10.);
#102=VECTOR('',#335,1.2);
#103=VECTOR('',#340,1.25);
#104=VECTOR('',#349,1.2);
#105=VECTOR('',#358,10.);
#106=VECTOR('',#363,10.);
#107=VECTOR('',#374,10.);
#108=VECTOR('',#377,10.);
#109=VECTOR('',#380,10.);
#110=VECTOR('',#383,10.);
#111=VECTOR('',#386,10.);
#112=VECTOR('',#387,10.);
#113=VECTOR('',#390,10.);
#114=VECTOR('',#395,10.);
#115=VECTOR('',#402,0.5);
#116=VERTEX_POINT('',#407);
#117=VERTEX_POINT('',#408);
#118=VERTEX_POINT('',#410);
#119=VERTEX_POINT('',#412);
#120=VERTEX_POINT('',#418);
#121=VERTEX_POINT('',#420);
#122=VERTEX_POINT('',#424);
#123=VERTEX_POINT('',#428);
#124=VERTEX_POINT('',#431);
#125=VERTEX_POINT('',#437);
#126=VERTEX_POINT('',#438);
#127=VERTEX_POINT('',#440);
#128=VERTEX_POINT('',#442);
#129=VERTEX_POINT('',#444);
#130=VERTEX_POINT('',#449);
#131=VERTEX_POINT('',#452);
#132=VERTEX_POINT('',#454);
#133=VERTEX_POINT('',#458);
#134=VERTEX_POINT('',#460);
#135=VERTEX_POINT('',#464);
#136=VERTEX_POINT('',#468);
#137=VERTEX_POINT('',#475);
#138=EDGE_CURVE('',#116,#117,#80,.T.);
#139=EDGE_CURVE('',#116,#118,#81,.T.);
#140=EDGE_CURVE('',#119,#118,#82,.T.);
#141=EDGE_CURVE('',#117,#119,#83,.T.);
#142=EDGE_CURVE('',#119,#117,#27,.T.);
#143=EDGE_CURVE('',#120,#120,#28,.T.);
#144=EDGE_CURVE('',#120,#121,#84,.T.);
#145=EDGE_CURVE('',#121,#121,#29,.T.);
#146=EDGE_CURVE('',#121,#122,#85,.T.);
#147=EDGE_CURVE('',#122,#122,#30,.T.);
#148=EDGE_CURVE('',#123,#123,#31,.T.);
#149=EDGE_CURVE('',#122,#124,#86,.T.);
#150=EDGE_CURVE('',#124,#124,#32,.T.);
#151=EDGE_CURVE('',#116,#118,#33,.T.);
#152=EDGE_CURVE('',#125,#126,#87,.T.);
#153=EDGE_CURVE('',#125,#127,#34,.T.);
#154=EDGE_CURVE('',#127,#128,#35,.T.);
#155=EDGE_CURVE('',#129,#128,#88,.T.);
#156=EDGE_CURVE('',#126,#129,#36,.T.);
#157=EDGE_CURVE('',#128,#125,#37,.T.);
#158=EDGE_CURVE('',#130,#127,#38,.T.);
#159=EDGE_CURVE('',#129,#131,#89,.T.);
#160=EDGE_CURVE('',#132,#131,#39,.T.);
#161=EDGE_CURVE('',#132,#126,#90,.T.);
#162=EDGE_CURVE('',#133,#125,#91,.T.);
#163=EDGE_CURVE('',#133,#134,#40,.T.);
#164=EDGE_CURVE('',#128,#134,#92,.T.);
#165=EDGE_CURVE('',#135,#134,#93,.T.);
#166=EDGE_CURVE('',#131,#135,#94,.T.);
#167=EDGE_CURVE('',#133,#136,#95,.T.);
#168=EDGE_CURVE('',#135,#136,#41,.T.);
#169=EDGE_CURVE('',#136,#132,#96,.T.);
#170=EDGE_CURVE('',#137,#137,#42,.T.);
#171=EDGE_CURVE('',#137,#123,#97,.T.);
#172=ORIENTED_EDGE('',*,*,#138,.F.);
#173=ORIENTED_EDGE('',*,*,#139,.T.);
#174=ORIENTED_EDGE('',*,*,#140,.F.);
#175=ORIENTED_EDGE('',*,*,#141,.F.);
#176=ORIENTED_EDGE('',*,*,#141,.T.);
#177=ORIENTED_EDGE('',*,*,#142,.T.);
#178=ORIENTED_EDGE('',*,*,#143,.T.);
#179=ORIENTED_EDGE('',*,*,#144,.T.);
#180=ORIENTED_EDGE('',*,*,#145,.T.);
#181=ORIENTED_EDGE('',*,*,#144,.F.);
#182=ORIENTED_EDGE('',*,*,#145,.F.);
#183=ORIENTED_EDGE('',*,*,#146,.T.);
#184=ORIENTED_EDGE('',*,*,#147,.F.);
#185=ORIENTED_EDGE('',*,*,#146,.F.);
#186=ORIENTED_EDGE('',*,*,#143,.F.);
#187=ORIENTED_EDGE('',*,*,#148,.T.);
#188=ORIENTED_EDGE('',*,*,#147,.T.);
#189=ORIENTED_EDGE('',*,*,#149,.T.);
#190=ORIENTED_EDGE('',*,*,#150,.T.);
#191=ORIENTED_EDGE('',*,*,#149,.F.);
#192=ORIENTED_EDGE('',*,*,#150,.F.);
#193=ORIENTED_EDGE('',*,*,#151,.T.);
#194=ORIENTED_EDGE('',*,*,#139,.F.);
#195=ORIENTED_EDGE('',*,*,#152,.F.);
#196=ORIENTED_EDGE('',*,*,#153,.T.);
#197=ORIENTED_EDGE('',*,*,#154,.T.);
#198=ORIENTED_EDGE('',*,*,#155,.F.);
#199=ORIENTED_EDGE('',*,*,#156,.F.);
#200=ORIENTED_EDGE('',*,*,#153,.F.);
#201=ORIENTED_EDGE('',*,*,#157,.F.);
#202=ORIENTED_EDGE('',*,*,#154,.F.);
#203=ORIENTED_EDGE('',*,*,#158,.F.);
#204=ORIENTED_EDGE('',*,*,#158,.T.);
#205=ORIENTED_EDGE('',*,*,#156,.T.);
#206=ORIENTED_EDGE('',*,*,#159,.T.);
#207=ORIENTED_EDGE('',*,*,#160,.F.);
#208=ORIENTED_EDGE('',*,*,#161,.T.);
#209=ORIENTED_EDGE('',*,*,#157,.T.);
#210=ORIENTED_EDGE('',*,*,#162,.F.);
#211=ORIENTED_EDGE('',*,*,#163,.T.);
#212=ORIENTED_EDGE('',*,*,#164,.F.);
#213=ORIENTED_EDGE('',*,*,#155,.T.);
#214=ORIENTED_EDGE('',*,*,#164,.T.);
#215=ORIENTED_EDGE('',*,*,#165,.F.);
#216=ORIENTED_EDGE('',*,*,#166,.F.);
#217=ORIENTED_EDGE('',*,*,#159,.F.);
#218=ORIENTED_EDGE('',*,*,#167,.T.);
#219=ORIENTED_EDGE('',*,*,#168,.F.);
#220=ORIENTED_EDGE('',*,*,#165,.T.);
#221=ORIENTED_EDGE('',*,*,#163,.F.);
#222=ORIENTED_EDGE('',*,*,#162,.T.);
#223=ORIENTED_EDGE('',*,*,#152,.T.);
#224=ORIENTED_EDGE('',*,*,#161,.F.);
#225=ORIENTED_EDGE('',*,*,#169,.F.);
#226=ORIENTED_EDGE('',*,*,#167,.F.);
#227=ORIENTED_EDGE('',*,*,#138,.T.);
#228=ORIENTED_EDGE('',*,*,#142,.F.);
#229=ORIENTED_EDGE('',*,*,#140,.T.);
#230=ORIENTED_EDGE('',*,*,#151,.F.);
#231=ORIENTED_EDGE('',*,*,#168,.T.);
#232=ORIENTED_EDGE('',*,*,#169,.T.);
#233=ORIENTED_EDGE('',*,*,#160,.T.);
#234=ORIENTED_EDGE('',*,*,#166,.T.);
#235=ORIENTED_EDGE('',*,*,#170,.F.);
#236=ORIENTED_EDGE('',*,*,#171,.T.);
#237=ORIENTED_EDGE('',*,*,#148,.F.);
#238=ORIENTED_EDGE('',*,*,#171,.F.);
#239=ORIENTED_EDGE('',*,*,#170,.T.);
#240=PLANE('',#286);
#241=PLANE('',#287);
#242=PLANE('',#294);
#243=PLANE('',#298);
#244=PLANE('',#307);
#245=PLANE('',#311);
#246=PLANE('',#312);
#247=PLANE('',#314);
#248=PLANE('',#318);
#249=ADVANCED_FACE('',(#43),#240,.F.);
#250=ADVANCED_FACE('',(#44),#241,.T.);
#251=ADVANCED_FACE('',(#45),#25,.T.);
#252=ADVANCED_FACE('',(#46),#20,.T.);
#253=ADVANCED_FACE('',(#47,#17),#242,.F.);
#254=ADVANCED_FACE('',(#48),#26,.T.);
#255=ADVANCED_FACE('',(#49,#18),#243,.T.);
#256=ADVANCED_FACE('',(#50),#21,.T.);
#257=ADVANCED_FACE('',(#51),#14,.T.);
#258=ADVANCED_FACE('',(#52),#244,.F.);
#259=ADVANCED_FACE('',(#53),#22,.F.);
#260=ADVANCED_FACE('',(#54),#245,.F.);
#261=ADVANCED_FACE('',(#55),#246,.F.);
#262=ADVANCED_FACE('',(#56),#247,.F.);
#263=ADVANCED_FACE('',(#57,#19),#23,.T.);
#264=ADVANCED_FACE('',(#58),#24,.T.);
#265=ADVANCED_FACE('',(#59),#248,.F.);
#266=CLOSED_SHELL('',(#249,#250,#251,#252,#253,#254,#255,#256,#257,#258,
#259,#260,#261,#262,#263,#264,#265));
#267=DERIVED_UNIT_ELEMENT(#269,1.);
#268=DERIVED_UNIT_ELEMENT(#484,3.);
#269=(
MASS_UNIT()
NAMED_UNIT(*)
SI_UNIT($,.GRAM.)
);
#270=DERIVED_UNIT((#267,#268));
#271=MEASURE_REPRESENTATION_ITEM('density measure',
POSITIVE_RATIO_MEASURE(1.),#270);
#272=PROPERTY_DEFINITION_REPRESENTATION(#277,#274);
#273=PROPERTY_DEFINITION_REPRESENTATION(#278,#275);
#274=REPRESENTATION('material name',(#276),#481);
#275=REPRESENTATION('density',(#271),#481);
#276=DESCRIPTIVE_REPRESENTATION_ITEM('\X2\C77CBC18\X0\','\X2\C77CBC18\X0\');
#277=PROPERTY_DEFINITION('material property','material name',#491);
#278=PROPERTY_DEFINITION('material property','density of part',#491);
#279=DATE_TIME_ROLE('creation_date');
#280=APPLIED_DATE_AND_TIME_ASSIGNMENT(#281,#279,(#491));
#281=DATE_AND_TIME(#282,#283);
#282=CALENDAR_DATE(2018,17,12);
#283=LOCAL_TIME(1,36,28.,#284);
#284=COORDINATED_UNIVERSAL_TIME_OFFSET(0,0,.BEHIND.);
#285=AXIS2_PLACEMENT_3D('placement',#405,#319,#320);
#286=AXIS2_PLACEMENT_3D('',#406,#321,#322);
#287=AXIS2_PLACEMENT_3D('',#415,#327,#328);
#288=AXIS2_PLACEMENT_3D('',#416,#329,#330);
#289=AXIS2_PLACEMENT_3D('',#417,#331,#332);
#290=AXIS2_PLACEMENT_3D('',#419,#333,#334);
#291=AXIS2_PLACEMENT_3D('',#422,#336,#337);
#292=AXIS2_PLACEMENT_3D('',#423,#338,#339);
#293=AXIS2_PLACEMENT_3D('',#426,#341,#342);
#294=AXIS2_PLACEMENT_3D('',#427,#343,#344);
#295=AXIS2_PLACEMENT_3D('',#429,#345,#346);
#296=AXIS2_PLACEMENT_3D('',#430,#347,#348);
#297=AXIS2_PLACEMENT_3D('',#433,#350,#351);
#298=AXIS2_PLACEMENT_3D('',#434,#352,#353);
#299=AXIS2_PLACEMENT_3D('',#435,#354,#355);
#300=AXIS2_PLACEMENT_3D('',#436,#356,#357);
#301=AXIS2_PLACEMENT_3D('',#441,#359,#360);
#302=AXIS2_PLACEMENT_3D('',#443,#361,#362);
#303=AXIS2_PLACEMENT_3D('',#446,#364,#365);
#304=AXIS2_PLACEMENT_3D('',#447,#366,#367);
#305=AXIS2_PLACEMENT_3D('',#448,#368,#369);
#306=AXIS2_PLACEMENT_3D('',#450,#370,#371);
#307=AXIS2_PLACEMENT_3D('',#451,#372,#373);
#308=AXIS2_PLACEMENT_3D('',#455,#375,#376);
#309=AXIS2_PLACEMENT_3D('',#457,#378,#379);
#310=AXIS2_PLACEMENT_3D('',#461,#381,#382);
#311=AXIS2_PLACEMENT_3D('',#463,#384,#385);
#312=AXIS2_PLACEMENT_3D('',#467,#388,#389);
#313=AXIS2_PLACEMENT_3D('',#470,#391,#392);
#314=AXIS2_PLACEMENT_3D('',#471,#393,#394);
#315=AXIS2_PLACEMENT_3D('',#473,#396,#397);
#316=AXIS2_PLACEMENT_3D('',#474,#398,#399);
#317=AXIS2_PLACEMENT_3D('',#476,#400,#401);
#318=AXIS2_PLACEMENT_3D('',#478,#403,#404);
#319=DIRECTION('axis',(0.,0.,1.));
#320=DIRECTION('refdir',(1.,0.,0.));
#321=DIRECTION('center_axis',(-6.93889390390723E-17,1.,0.));
#322=DIRECTION('ref_axis',(1.,6.93889390390723E-17,0.));
#323=DIRECTION('',(0.,0.,1.));
#324=DIRECTION('',(1.,6.93889390390723E-17,0.));
#325=DIRECTION('',(0.,0.,-1.));
#326=DIRECTION('',(1.,6.93889390390723E-17,0.));
#327=DIRECTION('center_axis',(0.,0.,1.));
#328=DIRECTION('ref_axis',(1.,0.,0.));
#329=DIRECTION('center_axis',(0.,0.,1.));
#330=DIRECTION('ref_axis',(-1.,0.,0.));
#331=DIRECTION('center_axis',(0.,0.,1.));
#332=DIRECTION('ref_axis',(-1.,0.,0.));
#333=DIRECTION('center_axis',(0.,0.,1.));
#334=DIRECTION('ref_axis',(-1.,0.,0.));
#335=DIRECTION('',(0.707106781186547,-8.65956056235493E-17,0.707106781186547));
#336=DIRECTION('center_axis',(0.,0.,-1.));
#337=DIRECTION('ref_axis',(-1.,0.,0.));
#338=DIRECTION('center_axis',(0.,0.,-1.));
#339=DIRECTION('ref_axis',(-1.,0.,0.));
#340=DIRECTION('',(0.,0.,1.));
#341=DIRECTION('center_axis',(0.,0.,1.));
#342=DIRECTION('ref_axis',(-1.,0.,0.));
#343=DIRECTION('center_axis',(0.,0.,1.));
#344=DIRECTION('ref_axis',(1.,0.,0.));
#345=DIRECTION('center_axis',(0.,0.,1.));
#346=DIRECTION('ref_axis',(1.,0.,0.));
#347=DIRECTION('center_axis',(0.,0.,-1.));
#348=DIRECTION('ref_axis',(-1.,0.,0.));
#349=DIRECTION('',(-0.707106781186548,8.65956056235493E-17,0.707106781186547));
#350=DIRECTION('center_axis',(0.,0.,-1.));
#351=DIRECTION('ref_axis',(-1.,0.,0.));
#352=DIRECTION('center_axis',(0.,0.,1.));
#353=DIRECTION('ref_axis',(1.,0.,0.));
#354=DIRECTION('center_axis',(0.,0.,-1.));
#355=DIRECTION('ref_axis',(-1.,0.,0.));
#356=DIRECTION('center_axis',(0.,0.,-1.));
#357=DIRECTION('ref_axis',(0.,1.,0.));
#358=DIRECTION('',(0.,0.,-1.));
#359=DIRECTION('center_axis',(0.,0.,-1.));
#360=DIRECTION('ref_axis',(1.,0.,0.));
#361=DIRECTION('center_axis',(0.,0.,-1.));
#362=DIRECTION('ref_axis',(1.,0.,0.));
#363=DIRECTION('',(0.,0.,1.));
#364=DIRECTION('center_axis',(0.,0.,-1.));
#365=DIRECTION('ref_axis',(0.,1.,0.));
#366=DIRECTION('center_axis',(6.12323399573677E-17,0.,1.));
#367=DIRECTION('ref_axis',(1.,0.,0.));
#368=DIRECTION('center_axis',(0.,0.,-1.));
#369=DIRECTION('ref_axis',(1.,0.,0.));
#370=DIRECTION('center_axis',(1.22464679914735E-16,-1.,0.));
#371=DIRECTION('ref_axis',(-1.,-1.22464679914735E-16,0.));
#372=DIRECTION('center_axis',(0.,0.,-1.));
#373=DIRECTION('ref_axis',(1.,0.,0.));
#374=DIRECTION('',(1.,0.,0.));
#375=DIRECTION('center_axis',(0.,0.,-1.));
#376=DIRECTION('ref_axis',(-1.,0.,0.));
#377=DIRECTION('',(1.,0.,0.));
#378=DIRECTION('center_axis',(0.,0.,-1.));
#379=DIRECTION('ref_axis',(1.,0.,0.));
#380=DIRECTION('',(0.,0.,-1.));
#381=DIRECTION('center_axis',(0.,0.,1.));
#382=DIRECTION('ref_axis',(1.,0.,0.));
#383=DIRECTION('',(0.,0.,1.));
#384=DIRECTION('center_axis',(0.,-1.,0.));
#385=DIRECTION('ref_axis',(0.,0.,-1.));
#386=DIRECTION('',(-1.,0.,0.));
#387=DIRECTION('',(0.,0.,1.));
#388=DIRECTION('center_axis',(0.,0.,1.));
#389=DIRECTION('ref_axis',(-1.,0.,0.));
#390=DIRECTION('',(-1.,0.,0.));
#391=DIRECTION('center_axis',(0.,0.,1.));
#392=DIRECTION('ref_axis',(-1.,0.,0.));
#393=DIRECTION('center_axis',(0.,-1.,0.));
#394=DIRECTION('ref_axis',(0.,0.,-1.));
#395=DIRECTION('',(0.,0.,-1.));
#396=DIRECTION('center_axis',(0.,0.,1.));
#397=DIRECTION('ref_axis',(-6.12323399573677E-17,1.,0.));
#398=DIRECTION('center_axis',(0.,0.,-1.));
#399=DIRECTION('ref_axis',(1.,0.,0.));
#400=DIRECTION('center_axis',(0.,0.,-1.));
#401=DIRECTION('ref_axis',(1.,0.,0.));
#402=DIRECTION('',(0.,0.,1.));
#403=DIRECTION('center_axis',(0.,0.,1.));
#404=DIRECTION('ref_axis',(1.,0.,0.));
#405=CARTESIAN_POINT('',(0.,0.,0.));
#406=CARTESIAN_POINT('Origin',(-0.5,-0.475,15.));
#407=CARTESIAN_POINT('',(-0.277263412660236,-0.475,0.));
#408=CARTESIAN_POINT('',(-0.277263412660236,-0.475,15.));
#409=CARTESIAN_POINT('',(-0.277263412660236,-0.475,0.));
#410=CARTESIAN_POINT('',(0.277263412660236,-0.475,0.));
#411=CARTESIAN_POINT('',(-0.25,-0.475,0.));
#412=CARTESIAN_POINT('',(0.277263412660236,-0.475,15.));
#413=CARTESIAN_POINT('',(0.277263412660236,-0.475,0.));
#414=CARTESIAN_POINT('',(-0.25,-0.475,15.));
#415=CARTESIAN_POINT('Origin',(-5.81803425559953E-17,1.31418445149758E-17,
15.));
#416=CARTESIAN_POINT('Origin',(0.,0.,15.));
#417=CARTESIAN_POINT('Origin',(0.,0.,-14.95));
#418=CARTESIAN_POINT('',(1.15,1.40834381901946E-16,-15.));
#419=CARTESIAN_POINT('Origin',(0.,0.,-15.));
#420=CARTESIAN_POINT('',(1.25,-1.53080849893419E-16,-14.9));
#421=CARTESIAN_POINT('',(1.2,-1.46957615897682E-16,-14.95));
#422=CARTESIAN_POINT('Origin',(0.,0.,-14.9));
#423=CARTESIAN_POINT('Origin',(0.,0.,0.));
#424=CARTESIAN_POINT('',(1.25,1.53080849893419E-16,-0.1));
#425=CARTESIAN_POINT('',(1.25,-1.53080849893419E-16,0.));
#426=CARTESIAN_POINT('Origin',(0.,0.,-0.1));
#427=CARTESIAN_POINT('Origin',(-5.90160301838331E-17,0.,-15.));
#428=CARTESIAN_POINT('',(-0.5,6.12323399573677E-17,-15.));
#429=CARTESIAN_POINT('Origin',(0.,0.,-15.));
#430=CARTESIAN_POINT('Origin',(0.,0.,-0.05));
#431=CARTESIAN_POINT('',(1.15,-1.40834381901946E-16,0.));
#432=CARTESIAN_POINT('',(1.2,-1.46957615897682E-16,-0.05));
#433=CARTESIAN_POINT('Origin',(0.,0.,0.));
#434=CARTESIAN_POINT('Origin',(-5.90160301838331E-17,0.,0.));
#435=CARTESIAN_POINT('Origin',(0.,0.,0.));
#436=CARTESIAN_POINT('Origin',(0.,0.,12.9996076824454));
#437=CARTESIAN_POINT('',(-0.244948974278318,-0.05,13.4996076824454));
#438=CARTESIAN_POINT('',(-0.244948974278318,-0.05,12.4996076824454));
#439=CARTESIAN_POINT('',(-0.244948974278318,-0.05,14.));
#440=CARTESIAN_POINT('',(-0.25,-3.06161699786838E-17,13.4996076824454));
#441=CARTESIAN_POINT('Origin',(0.,0.,13.4996076824454));
#442=CARTESIAN_POINT('',(0.244948974278318,-0.05,13.4996076824454));
#443=CARTESIAN_POINT('Origin',(0.,0.,13.4996076824454));
#444=CARTESIAN_POINT('',(0.244948974278318,-0.05,12.4996076824454));
#445=CARTESIAN_POINT('',(0.244948974278318,-0.05,14.));
#446=CARTESIAN_POINT('Origin',(0.,0.,12.4996076824454));
#447=CARTESIAN_POINT('Origin',(0.,0.,13.4996076824454));
#448=CARTESIAN_POINT('Origin',(0.,0.,13.4996076824454));
#449=CARTESIAN_POINT('',(-1.53080849893419E-17,-1.87469972832732E-33,13.7496076824454));
#450=CARTESIAN_POINT('Origin',(0.,0.,13.4996076824454));
#451=CARTESIAN_POINT('Origin',(-0.750000000000001,0.75,12.4996076824454));
#452=CARTESIAN_POINT('',(0.547722557505166,-0.05,12.4996076824454));
#453=CARTESIAN_POINT('',(-0.750000000000001,-0.05,12.4996076824454));
#454=CARTESIAN_POINT('',(-0.547722557505166,-0.05,12.4996076824454));
#455=CARTESIAN_POINT('Origin',(0.,0.,12.4996076824454));
#456=CARTESIAN_POINT('',(-0.750000000000001,-0.05,12.4996076824454));
#457=CARTESIAN_POINT('Origin',(0.,0.,14.));
#458=CARTESIAN_POINT('',(-0.244948974278318,-0.05,14.));
#459=CARTESIAN_POINT('',(-0.244948974278318,-0.05,14.));
#460=CARTESIAN_POINT('',(0.244948974278318,-0.05,14.));
#461=CARTESIAN_POINT('Origin',(0.,0.,14.));
#462=CARTESIAN_POINT('',(0.244948974278318,-0.05,14.));
#463=CARTESIAN_POINT('Origin',(-5.55111512312578E-16,-0.05,13.2498038412227));
#464=CARTESIAN_POINT('',(0.547722557505166,-0.05,14.));
#465=CARTESIAN_POINT('',(0.75,-0.05,14.));
#466=CARTESIAN_POINT('',(0.547722557505166,-0.05,0.));
#467=CARTESIAN_POINT('Origin',(0.75,0.75,14.));
#468=CARTESIAN_POINT('',(-0.547722557505166,-0.05,14.));
#469=CARTESIAN_POINT('',(0.75,-0.05,14.));
#470=CARTESIAN_POINT('Origin',(0.,0.,14.));
#471=CARTESIAN_POINT('Origin',(-5.55111512312578E-16,-0.05,13.2498038412227));
#472=CARTESIAN_POINT('',(-0.547722557505166,-0.05,0.));
#473=CARTESIAN_POINT('Origin',(0.,0.,0.));
#474=CARTESIAN_POINT('Origin',(0.,0.,-15.));
#475=CARTESIAN_POINT('',(-0.5,6.12323399573677E-17,-85.));
#476=CARTESIAN_POINT('Origin',(0.,0.,-85.));
#477=CARTESIAN_POINT('',(-0.5,6.12323399573677E-17,-15.));
#478=CARTESIAN_POINT('Origin',(4.84707818958675E-17,-7.2280144832367E-18,
-85.));
#479=UNCERTAINTY_MEASURE_WITH_UNIT(LENGTH_MEASURE(0.01),#483,
'DISTANCE_ACCURACY_VALUE',
'Maximum model space distance between geometric entities at asserted c
onnectivities');
#480=UNCERTAINTY_MEASURE_WITH_UNIT(LENGTH_MEASURE(0.01),#483,
'DISTANCE_ACCURACY_VALUE',
'Maximum model space distance between geometric entities at asserted c
onnectivities');
#481=(
GEOMETRIC_REPRESENTATION_CONTEXT(3)
GLOBAL_UNCERTAINTY_ASSIGNED_CONTEXT((#479))
GLOBAL_UNIT_ASSIGNED_CONTEXT((#483,#486,#485))
REPRESENTATION_CONTEXT('','3D')
);
#482=(
GEOMETRIC_REPRESENTATION_CONTEXT(3)
GLOBAL_UNCERTAINTY_ASSIGNED_CONTEXT((#480))
GLOBAL_UNIT_ASSIGNED_CONTEXT((#483,#486,#485))
REPRESENTATION_CONTEXT('','3D')
);
#483=(
LENGTH_UNIT()
NAMED_UNIT(*)
SI_UNIT(.MILLI.,.METRE.)
);
#484=(
LENGTH_UNIT()
NAMED_UNIT(*)
SI_UNIT(.CENTI.,.METRE.)
);
#485=(
NAMED_UNIT(*)
SI_UNIT($,.STERADIAN.)
SOLID_ANGLE_UNIT()
);
#486=(
NAMED_UNIT(*)
PLANE_ANGLE_UNIT()
SI_UNIT($,.RADIAN.)
);
#487=SHAPE_DEFINITION_REPRESENTATION(#488,#489);
#488=PRODUCT_DEFINITION_SHAPE('',$,#491);
#489=SHAPE_REPRESENTATION('',(#285),#481);
#490=PRODUCT_DEFINITION_CONTEXT('part definition',#495,'design');
#491=PRODUCT_DEFINITION('GPF-T007-2','GPF-T026',#492,#490);
#492=PRODUCT_DEFINITION_FORMATION('',$,#497);
#493=PRODUCT_RELATED_PRODUCT_CATEGORY('GPF-T026','GPF-T026',(#497));
#494=APPLICATION_PROTOCOL_DEFINITION('international standard',
'automotive_design',2009,#495);
#495=APPLICATION_CONTEXT(
'Core Data for Automotive Mechanical Design Process');
#496=PRODUCT_CONTEXT('part definition',#495,'mechanical');
#497=PRODUCT('GPF-T007-2','GPF-T026',$,(#496));
#498=PRESENTATION_STYLE_ASSIGNMENT((#500));
#499=PRESENTATION_STYLE_ASSIGNMENT((#501));
#500=SURFACE_STYLE_USAGE(.BOTH.,#502);
#501=SURFACE_STYLE_USAGE(.BOTH.,#503);
#502=SURFACE_SIDE_STYLE('',(#504));
#503=SURFACE_SIDE_STYLE('',(#505));
#504=SURFACE_STYLE_FILL_AREA(#506);
#505=SURFACE_STYLE_FILL_AREA(#507);
#506=FILL_AREA_STYLE('',(#508));
#507=FILL_AREA_STYLE('',(#509));
#508=FILL_AREA_STYLE_COLOUR('',#510);
#509=FILL_AREA_STYLE_COLOUR('',#511);
#510=COLOUR_RGB('',0.749019607843137,0.749019607843137,0.749019607843137);
#511=COLOUR_RGB('',0.8,0.,0.);
ENDSEC;
END-ISO-10303-21;
