ISO-10303-21;
HEADER;
/* Generated by software containing ST-Developer
 * from STEP Tools, Inc. (www.steptools.com) 
 */

FILE_DESCRIPTION(
/* description */ (''),
/* implementation_level */ '2;1');

FILE_NAME(
/* name */ 
'C:\\Users\\user\\Desktop\\FA\X2\C2DCC2A4D15C\X0\\\3D \X2\B3C4BA74\X0\\\
GPF-T019\\GPF-T019.stp',
/* time_stamp */ '2018-12-17T11:44:36+09:00',
/* author */ ('user'),
/* organization */ (''),
/* preprocessor_version */ 'ST-DEVELOPER v17',
/* originating_system */ 'Autodesk Inventor 2018',
/* authorisation */ '');

FILE_SCHEMA (('AUTOMOTIVE_DESIGN { 1 0 10303 214 3 1 1 }'));
ENDSEC;

DATA;
#10=MECHANICAL_DESIGN_GEOMETRIC_PRESENTATION_REPRESENTATION('',(#148,#149),
#308);
#11=SHAPE_REPRESENTATION_RELATIONSHIP('SRR','None',#315,#12);
#12=ADVANCED_BREP_SHAPE_REPRESENTATION('',(#13),#307);
#13=MANIFOLD_SOLID_BREP('\X2\C194B9ACB4DC\X0\5',#161);
#14=FACE_BOUND('',#55,.T.);
#15=FACE_BOUND('',#58,.T.);
#16=FACE_BOUND('',#61,.T.);
#17=PLANE('',#193);
#18=PLANE('',#197);
#19=PLANE('',#201);
#20=PLANE('',#204);
#21=CONICAL_SURFACE('',#188,1.425,0.785398163397452);
#22=CONICAL_SURFACE('',#195,1.425,0.785398163397449);
#23=LINE('',#274,#29);
#24=LINE('',#279,#30);
#25=LINE('',#283,#31);
#26=LINE('',#290,#32);
#27=LINE('',#298,#33);
#28=LINE('',#303,#34);
#29=VECTOR('',#221,0.25);
#30=VECTOR('',#226,1.425);
#31=VECTOR('',#231,1.5);
#32=VECTOR('',#240,1.425);
#33=VECTOR('',#251,0.4);
#34=VECTOR('',#258,0.65);
#35=CYLINDRICAL_SURFACE('',#186,0.25);
#36=CYLINDRICAL_SURFACE('',#191,1.5);
#37=CYLINDRICAL_SURFACE('',#199,0.4);
#38=CYLINDRICAL_SURFACE('',#202,0.65);
#39=FACE_OUTER_BOUND('',#50,.T.);
#40=FACE_OUTER_BOUND('',#51,.T.);
#41=FACE_OUTER_BOUND('',#52,.T.);
#42=FACE_OUTER_BOUND('',#53,.T.);
#43=FACE_OUTER_BOUND('',#54,.T.);
#44=FACE_OUTER_BOUND('',#56,.T.);
#45=FACE_OUTER_BOUND('',#57,.T.);
#46=FACE_OUTER_BOUND('',#59,.T.);
#47=FACE_OUTER_BOUND('',#60,.T.);
#48=FACE_OUTER_BOUND('',#62,.T.);
#49=FACE_OUTER_BOUND('',#63,.T.);
#50=EDGE_LOOP('',(#109,#110,#111,#112,#113));
#51=EDGE_LOOP('',(#114,#115,#116,#117,#118,#119));
#52=EDGE_LOOP('',(#120,#121,#122,#123));
#53=EDGE_LOOP('',(#124,#125,#126,#127));
#54=EDGE_LOOP('',(#128));
#55=EDGE_LOOP('',(#129));
#56=EDGE_LOOP('',(#130,#131,#132,#133));
#57=EDGE_LOOP('',(#134));
#58=EDGE_LOOP('',(#135));
#59=EDGE_LOOP('',(#136,#137,#138,#139));
#60=EDGE_LOOP('',(#140));
#61=EDGE_LOOP('',(#141));
#62=EDGE_LOOP('',(#142,#143,#144,#145));
#63=EDGE_LOOP('',(#146));
#64=CIRCLE('',#182,0.25);
#65=CIRCLE('',#183,0.25);
#66=CIRCLE('',#184,0.3625);
#67=CIRCLE('',#185,0.25);
#68=CIRCLE('',#187,0.25);
#69=CIRCLE('',#189,1.35);
#70=CIRCLE('',#190,1.5);
#71=CIRCLE('',#192,1.5);
#72=CIRCLE('',#194,0.65);
#73=CIRCLE('',#196,1.35);
#74=CIRCLE('',#198,0.4);
#75=CIRCLE('',#200,0.4);
#76=CIRCLE('',#203,0.65);
#77=VERTEX_POINT('',#263);
#78=VERTEX_POINT('',#264);
#79=VERTEX_POINT('',#266);
#80=VERTEX_POINT('',#268);
#81=VERTEX_POINT('',#272);
#82=VERTEX_POINT('',#276);
#83=VERTEX_POINT('',#278);
#84=VERTEX_POINT('',#282);
#85=VERTEX_POINT('',#286);
#86=VERTEX_POINT('',#289);
#87=VERTEX_POINT('',#293);
#88=VERTEX_POINT('',#296);
#89=VERTEX_POINT('',#301);
#90=EDGE_CURVE('',#77,#78,#64,.T.);
#91=EDGE_CURVE('',#79,#77,#65,.T.);
#92=EDGE_CURVE('',#80,#79,#66,.T.);
#93=EDGE_CURVE('',#78,#79,#67,.T.);
#94=EDGE_CURVE('',#81,#81,#68,.T.);
#95=EDGE_CURVE('',#81,#78,#23,.T.);
#96=EDGE_CURVE('',#82,#82,#69,.T.);
#97=EDGE_CURVE('',#82,#83,#24,.T.);
#98=EDGE_CURVE('',#83,#83,#70,.T.);
#99=EDGE_CURVE('',#83,#84,#25,.T.);
#100=EDGE_CURVE('',#84,#84,#71,.T.);
#101=EDGE_CURVE('',#85,#85,#72,.T.);
#102=EDGE_CURVE('',#84,#86,#26,.T.);
#103=EDGE_CURVE('',#86,#86,#73,.T.);
#104=EDGE_CURVE('',#87,#87,#74,.T.);
#105=EDGE_CURVE('',#88,#88,#75,.T.);
#106=EDGE_CURVE('',#88,#87,#27,.T.);
#107=EDGE_CURVE('',#89,#89,#76,.T.);
#108=EDGE_CURVE('',#89,#85,#28,.T.);
#109=ORIENTED_EDGE('',*,*,#90,.F.);
#110=ORIENTED_EDGE('',*,*,#91,.F.);
#111=ORIENTED_EDGE('',*,*,#92,.F.);
#112=ORIENTED_EDGE('',*,*,#92,.T.);
#113=ORIENTED_EDGE('',*,*,#93,.F.);
#114=ORIENTED_EDGE('',*,*,#94,.F.);
#115=ORIENTED_EDGE('',*,*,#95,.T.);
#116=ORIENTED_EDGE('',*,*,#93,.T.);
#117=ORIENTED_EDGE('',*,*,#91,.T.);
#118=ORIENTED_EDGE('',*,*,#90,.T.);
#119=ORIENTED_EDGE('',*,*,#95,.F.);
#120=ORIENTED_EDGE('',*,*,#96,.T.);
#121=ORIENTED_EDGE('',*,*,#97,.T.);
#122=ORIENTED_EDGE('',*,*,#98,.T.);
#123=ORIENTED_EDGE('',*,*,#97,.F.);
#124=ORIENTED_EDGE('',*,*,#98,.F.);
#125=ORIENTED_EDGE('',*,*,#99,.T.);
#126=ORIENTED_EDGE('',*,*,#100,.F.);
#127=ORIENTED_EDGE('',*,*,#99,.F.);
#128=ORIENTED_EDGE('',*,*,#96,.F.);
#129=ORIENTED_EDGE('',*,*,#101,.T.);
#130=ORIENTED_EDGE('',*,*,#100,.T.);
#131=ORIENTED_EDGE('',*,*,#102,.T.);
#132=ORIENTED_EDGE('',*,*,#103,.T.);
#133=ORIENTED_EDGE('',*,*,#102,.F.);
#134=ORIENTED_EDGE('',*,*,#103,.F.);
#135=ORIENTED_EDGE('',*,*,#104,.T.);
#136=ORIENTED_EDGE('',*,*,#105,.F.);
#137=ORIENTED_EDGE('',*,*,#106,.T.);
#138=ORIENTED_EDGE('',*,*,#104,.F.);
#139=ORIENTED_EDGE('',*,*,#106,.F.);
#140=ORIENTED_EDGE('',*,*,#105,.T.);
#141=ORIENTED_EDGE('',*,*,#94,.T.);
#142=ORIENTED_EDGE('',*,*,#107,.F.);
#143=ORIENTED_EDGE('',*,*,#108,.T.);
#144=ORIENTED_EDGE('',*,*,#101,.F.);
#145=ORIENTED_EDGE('',*,*,#108,.F.);
#146=ORIENTED_EDGE('',*,*,#107,.T.);
#147=SPHERICAL_SURFACE('',#181,0.3625);
#148=STYLED_ITEM('',(#325),#150);
#149=STYLED_ITEM('',(#324),#13);
#150=ADVANCED_FACE('',(#39),#147,.T.);
#151=ADVANCED_FACE('',(#40),#35,.F.);
#152=ADVANCED_FACE('',(#41),#21,.T.);
#153=ADVANCED_FACE('',(#42),#36,.T.);
#154=ADVANCED_FACE('',(#43,#14),#17,.F.);
#155=ADVANCED_FACE('',(#44),#22,.T.);
#156=ADVANCED_FACE('',(#45,#15),#18,.T.);
#157=ADVANCED_FACE('',(#46),#37,.T.);
#158=ADVANCED_FACE('',(#47,#16),#19,.T.);
#159=ADVANCED_FACE('',(#48),#38,.T.);
#160=ADVANCED_FACE('',(#49),#20,.F.);
#161=CLOSED_SHELL('',(#150,#151,#152,#153,#154,#155,#156,#157,#158,#159,
#160));
#162=DERIVED_UNIT_ELEMENT(#164,1.);
#163=DERIVED_UNIT_ELEMENT(#310,3.);
#164=(
MASS_UNIT()
NAMED_UNIT(*)
SI_UNIT($,.GRAM.)
);
#165=DERIVED_UNIT((#162,#163));
#166=MEASURE_REPRESENTATION_ITEM('density measure',
POSITIVE_RATIO_MEASURE(1.),#165);
#167=PROPERTY_DEFINITION_REPRESENTATION(#172,#169);
#168=PROPERTY_DEFINITION_REPRESENTATION(#173,#170);
#169=REPRESENTATION('material name',(#171),#307);
#170=REPRESENTATION('density',(#166),#307);
#171=DESCRIPTIVE_REPRESENTATION_ITEM('\X2\C77CBC18\X0\','\X2\C77CBC18\X0\');
#172=PROPERTY_DEFINITION('material property','material name',#317);
#173=PROPERTY_DEFINITION('material property','density of part',#317);
#174=DATE_TIME_ROLE('creation_date');
#175=APPLIED_DATE_AND_TIME_ASSIGNMENT(#176,#174,(#317));
#176=DATE_AND_TIME(#177,#178);
#177=CALENDAR_DATE(2018,17,12);
#178=LOCAL_TIME(1,36,28.,#179);
#179=COORDINATED_UNIVERSAL_TIME_OFFSET(0,0,.BEHIND.);
#180=AXIS2_PLACEMENT_3D('placement',#261,#205,#206);
#181=AXIS2_PLACEMENT_3D('',#262,#207,#208);
#182=AXIS2_PLACEMENT_3D('',#265,#209,#210);
#183=AXIS2_PLACEMENT_3D('',#267,#211,#212);
#184=AXIS2_PLACEMENT_3D('',#269,#213,#214);
#185=AXIS2_PLACEMENT_3D('',#270,#215,#216);
#186=AXIS2_PLACEMENT_3D('',#271,#217,#218);
#187=AXIS2_PLACEMENT_3D('',#273,#219,#220);
#188=AXIS2_PLACEMENT_3D('',#275,#222,#223);
#189=AXIS2_PLACEMENT_3D('',#277,#224,#225);
#190=AXIS2_PLACEMENT_3D('',#280,#227,#228);
#191=AXIS2_PLACEMENT_3D('',#281,#229,#230);
#192=AXIS2_PLACEMENT_3D('',#284,#232,#233);
#193=AXIS2_PLACEMENT_3D('',#285,#234,#235);
#194=AXIS2_PLACEMENT_3D('',#287,#236,#237);
#195=AXIS2_PLACEMENT_3D('',#288,#238,#239);
#196=AXIS2_PLACEMENT_3D('',#291,#241,#242);
#197=AXIS2_PLACEMENT_3D('',#292,#243,#244);
#198=AXIS2_PLACEMENT_3D('',#294,#245,#246);
#199=AXIS2_PLACEMENT_3D('',#295,#247,#248);
#200=AXIS2_PLACEMENT_3D('',#297,#249,#250);
#201=AXIS2_PLACEMENT_3D('',#299,#252,#253);
#202=AXIS2_PLACEMENT_3D('',#300,#254,#255);
#203=AXIS2_PLACEMENT_3D('',#302,#256,#257);
#204=AXIS2_PLACEMENT_3D('',#304,#259,#260);
#205=DIRECTION('axis',(0.,0.,1.));
#206=DIRECTION('refdir',(1.,0.,0.));
#207=DIRECTION('center_axis',(6.12323399573678E-17,0.,1.));
#208=DIRECTION('ref_axis',(1.,0.,0.));
#209=DIRECTION('center_axis',(0.,0.,-1.));
#210=DIRECTION('ref_axis',(-1.,0.,0.));
#211=DIRECTION('center_axis',(0.,0.,-1.));
#212=DIRECTION('ref_axis',(-1.,0.,0.));
#213=DIRECTION('center_axis',(1.22464679914735E-16,-1.,0.));
#214=DIRECTION('ref_axis',(-1.,-1.22464679914735E-16,0.));
#215=DIRECTION('center_axis',(0.,0.,-1.));
#216=DIRECTION('ref_axis',(-1.,0.,0.));
#217=DIRECTION('center_axis',(0.,0.,-1.));
#218=DIRECTION('ref_axis',(-1.,0.,0.));
#219=DIRECTION('center_axis',(0.,0.,-1.));
#220=DIRECTION('ref_axis',(-1.,0.,0.));
#221=DIRECTION('',(0.,0.,-1.));
#222=DIRECTION('center_axis',(0.,0.,1.));
#223=DIRECTION('ref_axis',(-1.,0.,0.));
#224=DIRECTION('center_axis',(0.,0.,1.));
#225=DIRECTION('ref_axis',(-1.,0.,0.));
#226=DIRECTION('',(0.70710678118655,-8.65956056235496E-17,0.707106781186545));
#227=DIRECTION('center_axis',(0.,0.,-1.));
#228=DIRECTION('ref_axis',(-1.,0.,0.));
#229=DIRECTION('center_axis',(0.,0.,-1.));
#230=DIRECTION('ref_axis',(-1.,0.,0.));
#231=DIRECTION('',(0.,0.,1.));
#232=DIRECTION('center_axis',(0.,0.,1.));
#233=DIRECTION('ref_axis',(-1.,0.,0.));
#234=DIRECTION('center_axis',(0.,0.,1.));
#235=DIRECTION('ref_axis',(1.,0.,0.));
#236=DIRECTION('center_axis',(0.,0.,1.));
#237=DIRECTION('ref_axis',(1.,0.,0.));
#238=DIRECTION('center_axis',(0.,0.,-1.));
#239=DIRECTION('ref_axis',(-1.,0.,0.));
#240=DIRECTION('',(-0.707106781186548,8.65956056235494E-17,0.707106781186547));
#241=DIRECTION('center_axis',(0.,0.,-1.));
#242=DIRECTION('ref_axis',(-1.,0.,0.));
#243=DIRECTION('center_axis',(0.,0.,1.));
#244=DIRECTION('ref_axis',(1.,0.,0.));
#245=DIRECTION('center_axis',(0.,0.,-1.));
#246=DIRECTION('ref_axis',(-1.,0.,0.));
#247=DIRECTION('center_axis',(0.,0.,1.));
#248=DIRECTION('ref_axis',(-1.,0.,0.));
#249=DIRECTION('center_axis',(0.,0.,1.));
#250=DIRECTION('ref_axis',(-1.,0.,0.));
#251=DIRECTION('',(0.,0.,-1.));
#252=DIRECTION('center_axis',(0.,0.,1.));
#253=DIRECTION('ref_axis',(1.,0.,0.));
#254=DIRECTION('center_axis',(0.,0.,-1.));
#255=DIRECTION('ref_axis',(1.,0.,0.));
#256=DIRECTION('center_axis',(0.,0.,-1.));
#257=DIRECTION('ref_axis',(1.,0.,0.));
#258=DIRECTION('',(0.,0.,1.));
#259=DIRECTION('center_axis',(0.,0.,1.));
#260=DIRECTION('ref_axis',(1.,0.,0.));
#261=CARTESIAN_POINT('',(0.,0.,0.));
#262=CARTESIAN_POINT('Origin',(0.,3.46944695195361E-17,14.6375));
#263=CARTESIAN_POINT('',(0.,0.25,14.9));
#264=CARTESIAN_POINT('',(0.25,-3.06161699786838E-17,14.9));
#265=CARTESIAN_POINT('Origin',(0.,0.,14.9));
#266=CARTESIAN_POINT('',(-0.25,4.07829954085231E-18,14.9));
#267=CARTESIAN_POINT('Origin',(0.,0.,14.9));
#268=CARTESIAN_POINT('',(-2.21967232345458E-17,3.46944695195361E-17,15.));
#269=CARTESIAN_POINT('Origin',(0.,3.46944695195361E-17,14.6375));
#270=CARTESIAN_POINT('Origin',(0.,0.,14.9));
#271=CARTESIAN_POINT('Origin',(0.,0.,15.));
#272=CARTESIAN_POINT('',(0.25,3.06161699786838E-17,15.));
#273=CARTESIAN_POINT('Origin',(0.,0.,15.));
#274=CARTESIAN_POINT('',(0.25,-3.06161699786838E-17,15.));
#275=CARTESIAN_POINT('Origin',(0.,0.,-14.925));
#276=CARTESIAN_POINT('',(1.35,1.65327317884893E-16,-15.));
#277=CARTESIAN_POINT('Origin',(0.,0.,-15.));
#278=CARTESIAN_POINT('',(1.5,-1.83697019872103E-16,-14.85));
#279=CARTESIAN_POINT('',(1.425,-1.74512168878498E-16,-14.925));
#280=CARTESIAN_POINT('Origin',(0.,0.,-14.85));
#281=CARTESIAN_POINT('Origin',(0.,0.,0.));
#282=CARTESIAN_POINT('',(1.5,1.83697019872103E-16,-0.15));
#283=CARTESIAN_POINT('',(1.5,-1.83697019872103E-16,0.));
#284=CARTESIAN_POINT('Origin',(0.,0.,-0.15));
#285=CARTESIAN_POINT('Origin',(-1.69505727298391E-16,3.85494105772624E-17,
-15.));
#286=CARTESIAN_POINT('',(-0.65,7.9602041944578E-17,-15.));
#287=CARTESIAN_POINT('Origin',(0.,0.,-15.));
#288=CARTESIAN_POINT('Origin',(0.,0.,-0.075));
#289=CARTESIAN_POINT('',(1.35,-1.65327317884893E-16,0.));
#290=CARTESIAN_POINT('',(1.425,-1.74512168878498E-16,-0.075));
#291=CARTESIAN_POINT('Origin',(0.,0.,0.));
#292=CARTESIAN_POINT('Origin',(-1.69505727298391E-16,3.85494105772624E-17,
0.));
#293=CARTESIAN_POINT('',(0.4,4.89858719658941E-17,0.));
#294=CARTESIAN_POINT('Origin',(0.,0.,0.));
#295=CARTESIAN_POINT('Origin',(0.,0.,0.));
#296=CARTESIAN_POINT('',(0.4,4.89858719658941E-17,15.));
#297=CARTESIAN_POINT('Origin',(0.,0.,15.));
#298=CARTESIAN_POINT('',(0.4,4.89858719658941E-17,0.));
#299=CARTESIAN_POINT('Origin',(-4.08215599715784E-18,0.,15.));
#300=CARTESIAN_POINT('Origin',(0.,0.,-15.));
#301=CARTESIAN_POINT('',(-0.65,7.9602041944578E-17,-85.));
#302=CARTESIAN_POINT('Origin',(0.,0.,-85.));
#303=CARTESIAN_POINT('',(-0.65,7.9602041944578E-17,-15.));
#304=CARTESIAN_POINT('Origin',(2.88735480591867E-17,0.,-85.));
#305=UNCERTAINTY_MEASURE_WITH_UNIT(LENGTH_MEASURE(0.01),#309,
'DISTANCE_ACCURACY_VALUE',
'Maximum model space distance between geometric entities at asserted c
onnectivities');
#306=UNCERTAINTY_MEASURE_WITH_UNIT(LENGTH_MEASURE(0.01),#309,
'DISTANCE_ACCURACY_VALUE',
'Maximum model space distance between geometric entities at asserted c
onnectivities');
#307=(
GEOMETRIC_REPRESENTATION_CONTEXT(3)
GLOBAL_UNCERTAINTY_ASSIGNED_CONTEXT((#305))
GLOBAL_UNIT_ASSIGNED_CONTEXT((#309,#312,#311))
REPRESENTATION_CONTEXT('','3D')
);
#308=(
GEOMETRIC_REPRESENTATION_CONTEXT(3)
GLOBAL_UNCERTAINTY_ASSIGNED_CONTEXT((#306))
GLOBAL_UNIT_ASSIGNED_CONTEXT((#309,#312,#311))
REPRESENTATION_CONTEXT('','3D')
);
#309=(
LENGTH_UNIT()
NAMED_UNIT(*)
SI_UNIT(.MILLI.,.METRE.)
);
#310=(
LENGTH_UNIT()
NAMED_UNIT(*)
SI_UNIT(.CENTI.,.METRE.)
);
#311=(
NAMED_UNIT(*)
SI_UNIT($,.STERADIAN.)
SOLID_ANGLE_UNIT()
);
#312=(
NAMED_UNIT(*)
PLANE_ANGLE_UNIT()
SI_UNIT($,.RADIAN.)
);
#313=SHAPE_DEFINITION_REPRESENTATION(#314,#315);
#314=PRODUCT_DEFINITION_SHAPE('',$,#317);
#315=SHAPE_REPRESENTATION('',(#180),#307);
#316=PRODUCT_DEFINITION_CONTEXT('part definition',#321,'design');
#317=PRODUCT_DEFINITION('GPF-T007-2','GPF-T019',#318,#316);
#318=PRODUCT_DEFINITION_FORMATION('',$,#323);
#319=PRODUCT_RELATED_PRODUCT_CATEGORY('GPF-T019','GPF-T019',(#323));
#320=APPLICATION_PROTOCOL_DEFINITION('international standard',
'automotive_design',2009,#321);
#321=APPLICATION_CONTEXT(
'Core Data for Automotive Mechanical Design Process');
#322=PRODUCT_CONTEXT('part definition',#321,'mechanical');
#323=PRODUCT('GPF-T007-2','GPF-T019',$,(#322));
#324=PRESENTATION_STYLE_ASSIGNMENT((#326));
#325=PRESENTATION_STYLE_ASSIGNMENT((#327));
#326=SURFACE_STYLE_USAGE(.BOTH.,#328);
#327=SURFACE_STYLE_USAGE(.BOTH.,#329);
#328=SURFACE_SIDE_STYLE('',(#330));
#329=SURFACE_SIDE_STYLE('',(#331));
#330=SURFACE_STYLE_FILL_AREA(#332);
#331=SURFACE_STYLE_FILL_AREA(#333);
#332=FILL_AREA_STYLE('',(#334));
#333=FILL_AREA_STYLE('',(#335));
#334=FILL_AREA_STYLE_COLOUR('',#336);
#335=FILL_AREA_STYLE_COLOUR('',#337);
#336=COLOUR_RGB('',0.749019607843137,0.749019607843137,0.749019607843137);
#337=COLOUR_RGB('',0.8,0.,0.);
ENDSEC;
END-ISO-10303-21;
