ISO-10303-21;
HEADER;
/* Generated by software containing ST-Developer
 * from STEP Tools, Inc. (www.steptools.com) 
 */

FILE_DESCRIPTION(
/* description */ (''),
/* implementation_level */ '2;1');

FILE_NAME(
/* name */ 
'C:\\Users\\user\\Desktop\\FA\X2\C2DCC2A4D15C\X0\\\3D \X2\B3C4BA74\X0\\\
GPF-D024-ST-2.0\\GPF-D024-ST-2.0.stp',
/* time_stamp */ '2018-12-14T14:11:01+09:00',
/* author */ ('user'),
/* organization */ (''),
/* preprocessor_version */ 'ST-DEVELOPER v17',
/* originating_system */ 'Autodesk Inventor 2018',
/* authorisation */ '');

FILE_SCHEMA (('AUTOMOTIVE_DESIGN { 1 0 10303 214 3 1 1 }'));
ENDSEC;

DATA;
#10=MECHANICAL_DESIGN_GEOMETRIC_PRESENTATION_REPRESENTATION('',(#16,#17,
#18),#691);
#11=SHAPE_REPRESENTATION_RELATIONSHIP('SRR','None',#698,#12);
#12=ADVANCED_BREP_SHAPE_REPRESENTATION('',(#13),#690);
#13=MANIFOLD_SOLID_BREP('\X2\C194B9ACB4DC\X0\5',#399);
#14=SPHERICAL_SURFACE('',#442,15.1500000000001);
#15=SPHERICAL_SURFACE('',#443,15.15);
#16=STYLED_ITEM('',(#708),#388);
#17=STYLED_ITEM('',(#708),#389);
#18=STYLED_ITEM('',(#707),#13);
#19=CYLINDRICAL_SURFACE('',#431,3.35);
#20=CYLINDRICAL_SURFACE('',#438,3.35);
#21=CYLINDRICAL_SURFACE('',#444,1.1);
#22=CYLINDRICAL_SURFACE('',#448,1.1);
#23=CYLINDRICAL_SURFACE('',#452,1.6);
#24=CYLINDRICAL_SURFACE('',#455,1.6);
#25=CONICAL_SURFACE('',#428,3.2,0.785398163397448);
#26=CONICAL_SURFACE('',#435,3.2,0.785398163397448);
#27=FACE_BOUND('',#81,.T.);
#28=FACE_BOUND('',#82,.T.);
#29=FACE_BOUND('',#91,.T.);
#30=FACE_BOUND('',#95,.T.);
#31=FACE_BOUND('',#105,.T.);
#32=FACE_BOUND('',#106,.T.);
#33=FACE_BOUND('',#108,.T.);
#34=FACE_BOUND('',#109,.T.);
#35=FACE_BOUND('',#111,.T.);
#36=FACE_BOUND('',#112,.T.);
#37=CIRCLE('',#421,1.6);
#38=CIRCLE('',#422,1.6);
#39=CIRCLE('',#429,3.05);
#40=CIRCLE('',#430,3.35);
#41=CIRCLE('',#432,3.35);
#42=CIRCLE('',#434,3.00000000000015);
#43=CIRCLE('',#436,3.05);
#44=CIRCLE('',#437,3.35);
#45=CIRCLE('',#439,3.35);
#46=CIRCLE('',#441,3.00000000000012);
#47=CIRCLE('',#445,1.1);
#48=CIRCLE('',#446,1.1);
#49=CIRCLE('',#449,1.1);
#50=CIRCLE('',#450,1.1);
#51=CIRCLE('',#453,1.6);
#52=CIRCLE('',#454,1.6);
#53=CIRCLE('',#456,1.6);
#54=CIRCLE('',#457,1.6);
#55=FACE_OUTER_BOUND('',#79,.T.);
#56=FACE_OUTER_BOUND('',#80,.T.);
#57=FACE_OUTER_BOUND('',#83,.T.);
#58=FACE_OUTER_BOUND('',#84,.T.);
#59=FACE_OUTER_BOUND('',#85,.T.);
#60=FACE_OUTER_BOUND('',#86,.T.);
#61=FACE_OUTER_BOUND('',#87,.T.);
#62=FACE_OUTER_BOUND('',#88,.T.);
#63=FACE_OUTER_BOUND('',#89,.T.);
#64=FACE_OUTER_BOUND('',#90,.T.);
#65=FACE_OUTER_BOUND('',#92,.T.);
#66=FACE_OUTER_BOUND('',#93,.T.);
#67=FACE_OUTER_BOUND('',#94,.T.);
#68=FACE_OUTER_BOUND('',#96,.T.);
#69=FACE_OUTER_BOUND('',#97,.T.);
#70=FACE_OUTER_BOUND('',#98,.T.);
#71=FACE_OUTER_BOUND('',#99,.T.);
#72=FACE_OUTER_BOUND('',#100,.T.);
#73=FACE_OUTER_BOUND('',#101,.T.);
#74=FACE_OUTER_BOUND('',#102,.T.);
#75=FACE_OUTER_BOUND('',#103,.T.);
#76=FACE_OUTER_BOUND('',#104,.T.);
#77=FACE_OUTER_BOUND('',#107,.T.);
#78=FACE_OUTER_BOUND('',#110,.T.);
#79=EDGE_LOOP('',(#261,#262,#263,#264));
#80=EDGE_LOOP('',(#265,#266,#267,#268,#269,#270,#271,#272));
#81=EDGE_LOOP('',(#273));
#82=EDGE_LOOP('',(#274));
#83=EDGE_LOOP('',(#275,#276,#277,#278));
#84=EDGE_LOOP('',(#279,#280,#281,#282));
#85=EDGE_LOOP('',(#283,#284,#285,#286));
#86=EDGE_LOOP('',(#287,#288,#289,#290));
#87=EDGE_LOOP('',(#291,#292,#293,#294));
#88=EDGE_LOOP('',(#295,#296,#297,#298));
#89=EDGE_LOOP('',(#299,#300,#301,#302));
#90=EDGE_LOOP('',(#303));
#91=EDGE_LOOP('',(#304));
#92=EDGE_LOOP('',(#305,#306,#307,#308));
#93=EDGE_LOOP('',(#309,#310,#311,#312));
#94=EDGE_LOOP('',(#313));
#95=EDGE_LOOP('',(#314));
#96=EDGE_LOOP('',(#315));
#97=EDGE_LOOP('',(#316));
#98=EDGE_LOOP('',(#317,#318,#319,#320));
#99=EDGE_LOOP('',(#321));
#100=EDGE_LOOP('',(#322,#323,#324,#325));
#101=EDGE_LOOP('',(#326));
#102=EDGE_LOOP('',(#327,#328,#329,#330,#331));
#103=EDGE_LOOP('',(#332,#333,#334,#335,#336));
#104=EDGE_LOOP('',(#337,#338,#339,#340));
#105=EDGE_LOOP('',(#341));
#106=EDGE_LOOP('',(#342));
#107=EDGE_LOOP('',(#343,#344,#345,#346));
#108=EDGE_LOOP('',(#347));
#109=EDGE_LOOP('',(#348));
#110=EDGE_LOOP('',(#349,#350,#351,#352,#353,#354,#355,#356));
#111=EDGE_LOOP('',(#357,#358));
#112=EDGE_LOOP('',(#359,#360));
#113=LINE('',#583,#145);
#114=LINE('',#585,#146);
#115=LINE('',#587,#147);
#116=LINE('',#588,#148);
#117=LINE('',#591,#149);
#118=LINE('',#593,#150);
#119=LINE('',#595,#151);
#120=LINE('',#597,#152);
#121=LINE('',#599,#153);
#122=LINE('',#601,#154);
#123=LINE('',#602,#155);
#124=LINE('',#609,#156);
#125=LINE('',#610,#157);
#126=LINE('',#613,#158);
#127=LINE('',#614,#159);
#128=LINE('',#617,#160);
#129=LINE('',#619,#161);
#130=LINE('',#620,#162);
#131=LINE('',#623,#163);
#132=LINE('',#624,#164);
#133=LINE('',#627,#165);
#134=LINE('',#628,#166);
#135=LINE('',#633,#167);
#136=LINE('',#637,#168);
#137=LINE('',#646,#169);
#138=LINE('',#650,#170);
#139=LINE('',#661,#171);
#140=LINE('',#668,#172);
#141=LINE('',#676,#173);
#142=LINE('',#682,#174);
#143=LINE('',#684,#175);
#144=LINE('',#686,#176);
#145=VECTOR('',#465,10.);
#146=VECTOR('',#466,10.);
#147=VECTOR('',#467,10.);
#148=VECTOR('',#468,10.);
#149=VECTOR('',#471,10.);
#150=VECTOR('',#472,10.);
#151=VECTOR('',#473,10.);
#152=VECTOR('',#474,10.);
#153=VECTOR('',#475,10.);
#154=VECTOR('',#476,10.);
#155=VECTOR('',#477,10.);
#156=VECTOR('',#484,10.);
#157=VECTOR('',#485,10.);
#158=VECTOR('',#488,10.);
#159=VECTOR('',#489,10.);
#160=VECTOR('',#492,10.);
#161=VECTOR('',#493,10.);
#162=VECTOR('',#494,10.);
#163=VECTOR('',#497,10.);
#164=VECTOR('',#498,10.);
#165=VECTOR('',#501,10.);
#166=VECTOR('',#502,10.);
#167=VECTOR('',#507,3.2);
#168=VECTOR('',#512,3.35);
#169=VECTOR('',#523,3.2);
#170=VECTOR('',#528,3.35);
#171=VECTOR('',#543,1.1);
#172=VECTOR('',#552,1.1);
#173=VECTOR('',#563,1.6);
#174=VECTOR('',#570,1.6);
#175=VECTOR('',#573,10.);
#176=VECTOR('',#576,10.);
#177=VERTEX_POINT('',#581);
#178=VERTEX_POINT('',#582);
#179=VERTEX_POINT('',#584);
#180=VERTEX_POINT('',#586);
#181=VERTEX_POINT('',#590);
#182=VERTEX_POINT('',#592);
#183=VERTEX_POINT('',#594);
#184=VERTEX_POINT('',#596);
#185=VERTEX_POINT('',#598);
#186=VERTEX_POINT('',#600);
#187=VERTEX_POINT('',#603);
#188=VERTEX_POINT('',#605);
#189=VERTEX_POINT('',#608);
#190=VERTEX_POINT('',#612);
#191=VERTEX_POINT('',#616);
#192=VERTEX_POINT('',#618);
#193=VERTEX_POINT('',#622);
#194=VERTEX_POINT('',#626);
#195=VERTEX_POINT('',#630);
#196=VERTEX_POINT('',#632);
#197=VERTEX_POINT('',#636);
#198=VERTEX_POINT('',#640);
#199=VERTEX_POINT('',#643);
#200=VERTEX_POINT('',#645);
#201=VERTEX_POINT('',#649);
#202=VERTEX_POINT('',#653);
#203=VERTEX_POINT('',#658);
#204=VERTEX_POINT('',#660);
#205=VERTEX_POINT('',#665);
#206=VERTEX_POINT('',#667);
#207=VERTEX_POINT('',#672);
#208=VERTEX_POINT('',#673);
#209=VERTEX_POINT('',#678);
#210=VERTEX_POINT('',#679);
#211=EDGE_CURVE('',#177,#178,#113,.T.);
#212=EDGE_CURVE('',#178,#179,#114,.T.);
#213=EDGE_CURVE('',#179,#180,#115,.T.);
#214=EDGE_CURVE('',#180,#177,#116,.T.);
#215=EDGE_CURVE('',#177,#181,#117,.T.);
#216=EDGE_CURVE('',#182,#181,#118,.T.);
#217=EDGE_CURVE('',#182,#183,#119,.T.);
#218=EDGE_CURVE('',#184,#183,#120,.T.);
#219=EDGE_CURVE('',#184,#185,#121,.T.);
#220=EDGE_CURVE('',#186,#185,#122,.T.);
#221=EDGE_CURVE('',#186,#178,#123,.T.);
#222=EDGE_CURVE('',#187,#187,#37,.T.);
#223=EDGE_CURVE('',#188,#188,#38,.T.);
#224=EDGE_CURVE('',#189,#180,#124,.T.);
#225=EDGE_CURVE('',#181,#189,#125,.T.);
#226=EDGE_CURVE('',#189,#190,#126,.T.);
#227=EDGE_CURVE('',#190,#182,#127,.T.);
#228=EDGE_CURVE('',#183,#191,#128,.T.);
#229=EDGE_CURVE('',#191,#192,#129,.T.);
#230=EDGE_CURVE('',#192,#184,#130,.T.);
#231=EDGE_CURVE('',#193,#192,#131,.T.);
#232=EDGE_CURVE('',#185,#193,#132,.T.);
#233=EDGE_CURVE('',#193,#194,#133,.T.);
#234=EDGE_CURVE('',#194,#186,#134,.T.);
#235=EDGE_CURVE('',#195,#195,#39,.T.);
#236=EDGE_CURVE('',#195,#196,#135,.T.);
#237=EDGE_CURVE('',#196,#196,#40,.T.);
#238=EDGE_CURVE('',#196,#197,#136,.T.);
#239=EDGE_CURVE('',#197,#197,#41,.T.);
#240=EDGE_CURVE('',#198,#198,#42,.T.);
#241=EDGE_CURVE('',#199,#199,#43,.T.);
#242=EDGE_CURVE('',#199,#200,#137,.T.);
#243=EDGE_CURVE('',#200,#200,#44,.T.);
#244=EDGE_CURVE('',#200,#201,#138,.T.);
#245=EDGE_CURVE('',#201,#201,#45,.T.);
#246=EDGE_CURVE('',#202,#202,#46,.T.);
#247=EDGE_CURVE('',#203,#203,#47,.T.);
#248=EDGE_CURVE('',#203,#204,#139,.T.);
#249=EDGE_CURVE('',#204,#204,#48,.T.);
#250=EDGE_CURVE('',#205,#205,#49,.T.);
#251=EDGE_CURVE('',#205,#206,#140,.T.);
#252=EDGE_CURVE('',#206,#206,#50,.T.);
#253=EDGE_CURVE('',#207,#208,#51,.T.);
#254=EDGE_CURVE('',#208,#207,#52,.T.);
#255=EDGE_CURVE('',#208,#187,#141,.T.);
#256=EDGE_CURVE('',#209,#210,#53,.T.);
#257=EDGE_CURVE('',#210,#209,#54,.T.);
#258=EDGE_CURVE('',#210,#188,#142,.T.);
#259=EDGE_CURVE('',#179,#194,#143,.T.);
#260=EDGE_CURVE('',#191,#190,#144,.T.);
#261=ORIENTED_EDGE('',*,*,#211,.T.);
#262=ORIENTED_EDGE('',*,*,#212,.T.);
#263=ORIENTED_EDGE('',*,*,#213,.T.);
#264=ORIENTED_EDGE('',*,*,#214,.T.);
#265=ORIENTED_EDGE('',*,*,#211,.F.);
#266=ORIENTED_EDGE('',*,*,#215,.T.);
#267=ORIENTED_EDGE('',*,*,#216,.F.);
#268=ORIENTED_EDGE('',*,*,#217,.T.);
#269=ORIENTED_EDGE('',*,*,#218,.F.);
#270=ORIENTED_EDGE('',*,*,#219,.T.);
#271=ORIENTED_EDGE('',*,*,#220,.F.);
#272=ORIENTED_EDGE('',*,*,#221,.T.);
#273=ORIENTED_EDGE('',*,*,#222,.T.);
#274=ORIENTED_EDGE('',*,*,#223,.T.);
#275=ORIENTED_EDGE('',*,*,#214,.F.);
#276=ORIENTED_EDGE('',*,*,#224,.F.);
#277=ORIENTED_EDGE('',*,*,#225,.F.);
#278=ORIENTED_EDGE('',*,*,#215,.F.);
#279=ORIENTED_EDGE('',*,*,#226,.T.);
#280=ORIENTED_EDGE('',*,*,#227,.T.);
#281=ORIENTED_EDGE('',*,*,#216,.T.);
#282=ORIENTED_EDGE('',*,*,#225,.T.);
#283=ORIENTED_EDGE('',*,*,#218,.T.);
#284=ORIENTED_EDGE('',*,*,#228,.T.);
#285=ORIENTED_EDGE('',*,*,#229,.T.);
#286=ORIENTED_EDGE('',*,*,#230,.T.);
#287=ORIENTED_EDGE('',*,*,#230,.F.);
#288=ORIENTED_EDGE('',*,*,#231,.F.);
#289=ORIENTED_EDGE('',*,*,#232,.F.);
#290=ORIENTED_EDGE('',*,*,#219,.F.);
#291=ORIENTED_EDGE('',*,*,#220,.T.);
#292=ORIENTED_EDGE('',*,*,#232,.T.);
#293=ORIENTED_EDGE('',*,*,#233,.T.);
#294=ORIENTED_EDGE('',*,*,#234,.T.);
#295=ORIENTED_EDGE('',*,*,#235,.T.);
#296=ORIENTED_EDGE('',*,*,#236,.T.);
#297=ORIENTED_EDGE('',*,*,#237,.T.);
#298=ORIENTED_EDGE('',*,*,#236,.F.);
#299=ORIENTED_EDGE('',*,*,#237,.F.);
#300=ORIENTED_EDGE('',*,*,#238,.T.);
#301=ORIENTED_EDGE('',*,*,#239,.F.);
#302=ORIENTED_EDGE('',*,*,#238,.F.);
#303=ORIENTED_EDGE('',*,*,#235,.F.);
#304=ORIENTED_EDGE('',*,*,#240,.T.);
#305=ORIENTED_EDGE('',*,*,#241,.T.);
#306=ORIENTED_EDGE('',*,*,#242,.T.);
#307=ORIENTED_EDGE('',*,*,#243,.T.);
#308=ORIENTED_EDGE('',*,*,#242,.F.);
#309=ORIENTED_EDGE('',*,*,#243,.F.);
#310=ORIENTED_EDGE('',*,*,#244,.T.);
#311=ORIENTED_EDGE('',*,*,#245,.F.);
#312=ORIENTED_EDGE('',*,*,#244,.F.);
#313=ORIENTED_EDGE('',*,*,#241,.F.);
#314=ORIENTED_EDGE('',*,*,#246,.T.);
#315=ORIENTED_EDGE('',*,*,#246,.F.);
#316=ORIENTED_EDGE('',*,*,#240,.F.);
#317=ORIENTED_EDGE('',*,*,#247,.F.);
#318=ORIENTED_EDGE('',*,*,#248,.T.);
#319=ORIENTED_EDGE('',*,*,#249,.F.);
#320=ORIENTED_EDGE('',*,*,#248,.F.);
#321=ORIENTED_EDGE('',*,*,#247,.T.);
#322=ORIENTED_EDGE('',*,*,#250,.F.);
#323=ORIENTED_EDGE('',*,*,#251,.T.);
#324=ORIENTED_EDGE('',*,*,#252,.F.);
#325=ORIENTED_EDGE('',*,*,#251,.F.);
#326=ORIENTED_EDGE('',*,*,#250,.T.);
#327=ORIENTED_EDGE('',*,*,#253,.F.);
#328=ORIENTED_EDGE('',*,*,#254,.F.);
#329=ORIENTED_EDGE('',*,*,#255,.T.);
#330=ORIENTED_EDGE('',*,*,#222,.F.);
#331=ORIENTED_EDGE('',*,*,#255,.F.);
#332=ORIENTED_EDGE('',*,*,#256,.F.);
#333=ORIENTED_EDGE('',*,*,#257,.F.);
#334=ORIENTED_EDGE('',*,*,#258,.T.);
#335=ORIENTED_EDGE('',*,*,#223,.F.);
#336=ORIENTED_EDGE('',*,*,#258,.F.);
#337=ORIENTED_EDGE('',*,*,#212,.F.);
#338=ORIENTED_EDGE('',*,*,#221,.F.);
#339=ORIENTED_EDGE('',*,*,#234,.F.);
#340=ORIENTED_EDGE('',*,*,#259,.F.);
#341=ORIENTED_EDGE('',*,*,#239,.T.);
#342=ORIENTED_EDGE('',*,*,#245,.T.);
#343=ORIENTED_EDGE('',*,*,#227,.F.);
#344=ORIENTED_EDGE('',*,*,#260,.F.);
#345=ORIENTED_EDGE('',*,*,#228,.F.);
#346=ORIENTED_EDGE('',*,*,#217,.F.);
#347=ORIENTED_EDGE('',*,*,#249,.T.);
#348=ORIENTED_EDGE('',*,*,#252,.T.);
#349=ORIENTED_EDGE('',*,*,#213,.F.);
#350=ORIENTED_EDGE('',*,*,#259,.T.);
#351=ORIENTED_EDGE('',*,*,#233,.F.);
#352=ORIENTED_EDGE('',*,*,#231,.T.);
#353=ORIENTED_EDGE('',*,*,#229,.F.);
#354=ORIENTED_EDGE('',*,*,#260,.T.);
#355=ORIENTED_EDGE('',*,*,#226,.F.);
#356=ORIENTED_EDGE('',*,*,#224,.T.);
#357=ORIENTED_EDGE('',*,*,#253,.T.);
#358=ORIENTED_EDGE('',*,*,#254,.T.);
#359=ORIENTED_EDGE('',*,*,#256,.T.);
#360=ORIENTED_EDGE('',*,*,#257,.T.);
#361=PLANE('',#419);
#362=PLANE('',#420);
#363=PLANE('',#423);
#364=PLANE('',#424);
#365=PLANE('',#425);
#366=PLANE('',#426);
#367=PLANE('',#427);
#368=PLANE('',#433);
#369=PLANE('',#440);
#370=PLANE('',#447);
#371=PLANE('',#451);
#372=PLANE('',#458);
#373=PLANE('',#459);
#374=PLANE('',#460);
#375=ADVANCED_FACE('',(#55),#361,.T.);
#376=ADVANCED_FACE('',(#56,#27,#28),#362,.T.);
#377=ADVANCED_FACE('',(#57),#363,.T.);
#378=ADVANCED_FACE('',(#58),#364,.T.);
#379=ADVANCED_FACE('',(#59),#365,.T.);
#380=ADVANCED_FACE('',(#60),#366,.T.);
#381=ADVANCED_FACE('',(#61),#367,.T.);
#382=ADVANCED_FACE('',(#62),#25,.T.);
#383=ADVANCED_FACE('',(#63),#19,.T.);
#384=ADVANCED_FACE('',(#64,#29),#368,.F.);
#385=ADVANCED_FACE('',(#65),#26,.T.);
#386=ADVANCED_FACE('',(#66),#20,.T.);
#387=ADVANCED_FACE('',(#67,#30),#369,.F.);
#388=ADVANCED_FACE('',(#68),#14,.T.);
#389=ADVANCED_FACE('',(#69),#15,.T.);
#390=ADVANCED_FACE('',(#70),#21,.T.);
#391=ADVANCED_FACE('',(#71),#370,.T.);
#392=ADVANCED_FACE('',(#72),#22,.T.);
#393=ADVANCED_FACE('',(#73),#371,.T.);
#394=ADVANCED_FACE('',(#74),#23,.F.);
#395=ADVANCED_FACE('',(#75),#24,.F.);
#396=ADVANCED_FACE('',(#76,#31,#32),#372,.T.);
#397=ADVANCED_FACE('',(#77,#33,#34),#373,.T.);
#398=ADVANCED_FACE('',(#78,#35,#36),#374,.T.);
#399=CLOSED_SHELL('',(#375,#376,#377,#378,#379,#380,#381,#382,#383,#384,
#385,#386,#387,#388,#389,#390,#391,#392,#393,#394,#395,#396,#397,#398));
#400=DERIVED_UNIT_ELEMENT(#402,1.);
#401=DERIVED_UNIT_ELEMENT(#693,3.);
#402=(
MASS_UNIT()
NAMED_UNIT(*)
SI_UNIT($,.GRAM.)
);
#403=DERIVED_UNIT((#400,#401));
#404=MEASURE_REPRESENTATION_ITEM('density measure',
POSITIVE_RATIO_MEASURE(1.),#403);
#405=PROPERTY_DEFINITION_REPRESENTATION(#410,#407);
#406=PROPERTY_DEFINITION_REPRESENTATION(#411,#408);
#407=REPRESENTATION('material name',(#409),#690);
#408=REPRESENTATION('density',(#404),#690);
#409=DESCRIPTIVE_REPRESENTATION_ITEM('\X2\C77CBC18\X0\','\X2\C77CBC18\X0\');
#410=PROPERTY_DEFINITION('material property','material name',#700);
#411=PROPERTY_DEFINITION('material property','density of part',#700);
#412=DATE_TIME_ROLE('creation_date');
#413=APPLIED_DATE_AND_TIME_ASSIGNMENT(#414,#412,(#700));
#414=DATE_AND_TIME(#415,#416);
#415=CALENDAR_DATE(2018,13,12);
#416=LOCAL_TIME(5,49,30.,#417);
#417=COORDINATED_UNIVERSAL_TIME_OFFSET(0,0,.BEHIND.);
#418=AXIS2_PLACEMENT_3D('placement',#579,#461,#462);
#419=AXIS2_PLACEMENT_3D('',#580,#463,#464);
#420=AXIS2_PLACEMENT_3D('',#589,#469,#470);
#421=AXIS2_PLACEMENT_3D('',#604,#478,#479);
#422=AXIS2_PLACEMENT_3D('',#606,#480,#481);
#423=AXIS2_PLACEMENT_3D('',#607,#482,#483);
#424=AXIS2_PLACEMENT_3D('',#611,#486,#487);
#425=AXIS2_PLACEMENT_3D('',#615,#490,#491);
#426=AXIS2_PLACEMENT_3D('',#621,#495,#496);
#427=AXIS2_PLACEMENT_3D('',#625,#499,#500);
#428=AXIS2_PLACEMENT_3D('',#629,#503,#504);
#429=AXIS2_PLACEMENT_3D('',#631,#505,#506);
#430=AXIS2_PLACEMENT_3D('',#634,#508,#509);
#431=AXIS2_PLACEMENT_3D('',#635,#510,#511);
#432=AXIS2_PLACEMENT_3D('',#638,#513,#514);
#433=AXIS2_PLACEMENT_3D('',#639,#515,#516);
#434=AXIS2_PLACEMENT_3D('',#641,#517,#518);
#435=AXIS2_PLACEMENT_3D('',#642,#519,#520);
#436=AXIS2_PLACEMENT_3D('',#644,#521,#522);
#437=AXIS2_PLACEMENT_3D('',#647,#524,#525);
#438=AXIS2_PLACEMENT_3D('',#648,#526,#527);
#439=AXIS2_PLACEMENT_3D('',#651,#529,#530);
#440=AXIS2_PLACEMENT_3D('',#652,#531,#532);
#441=AXIS2_PLACEMENT_3D('',#654,#533,#534);
#442=AXIS2_PLACEMENT_3D('',#655,#535,#536);
#443=AXIS2_PLACEMENT_3D('',#656,#537,#538);
#444=AXIS2_PLACEMENT_3D('',#657,#539,#540);
#445=AXIS2_PLACEMENT_3D('',#659,#541,#542);
#446=AXIS2_PLACEMENT_3D('',#662,#544,#545);
#447=AXIS2_PLACEMENT_3D('',#663,#546,#547);
#448=AXIS2_PLACEMENT_3D('',#664,#548,#549);
#449=AXIS2_PLACEMENT_3D('',#666,#550,#551);
#450=AXIS2_PLACEMENT_3D('',#669,#553,#554);
#451=AXIS2_PLACEMENT_3D('',#670,#555,#556);
#452=AXIS2_PLACEMENT_3D('',#671,#557,#558);
#453=AXIS2_PLACEMENT_3D('',#674,#559,#560);
#454=AXIS2_PLACEMENT_3D('',#675,#561,#562);
#455=AXIS2_PLACEMENT_3D('',#677,#564,#565);
#456=AXIS2_PLACEMENT_3D('',#680,#566,#567);
#457=AXIS2_PLACEMENT_3D('',#681,#568,#569);
#458=AXIS2_PLACEMENT_3D('',#683,#571,#572);
#459=AXIS2_PLACEMENT_3D('',#685,#574,#575);
#460=AXIS2_PLACEMENT_3D('',#687,#577,#578);
#461=DIRECTION('axis',(0.,0.,1.));
#462=DIRECTION('refdir',(1.,0.,0.));
#463=DIRECTION('center_axis',(-0.707106781186548,0.707106781186548,0.));
#464=DIRECTION('ref_axis',(0.,0.,1.));
#465=DIRECTION('',(-0.707106781186548,-0.707106781186548,0.));
#466=DIRECTION('',(0.,0.,1.));
#467=DIRECTION('',(0.707106781186548,0.707106781186548,0.));
#468=DIRECTION('',(0.,0.,-1.));
#469=DIRECTION('center_axis',(0.,0.,-1.));
#470=DIRECTION('ref_axis',(-1.,0.,0.));
#471=DIRECTION('',(1.,2.96059473233375E-16,0.));
#472=DIRECTION('',(-0.707106781186548,0.707106781186548,0.));
#473=DIRECTION('',(0.,-1.,0.));
#474=DIRECTION('',(0.707106781186548,0.707106781186548,0.));
#475=DIRECTION('',(-1.,-2.22044604925031E-16,0.));
#476=DIRECTION('',(0.707106781186548,-0.707106781186548,0.));
#477=DIRECTION('',(0.,1.,0.));
#478=DIRECTION('center_axis',(0.,0.,1.));
#479=DIRECTION('ref_axis',(1.,0.,0.));
#480=DIRECTION('center_axis',(0.,0.,1.));
#481=DIRECTION('ref_axis',(1.,0.,0.));
#482=DIRECTION('center_axis',(-2.96059473233375E-16,1.,0.));
#483=DIRECTION('ref_axis',(-1.,-2.96059473233375E-16,0.));
#484=DIRECTION('',(-1.,-2.96059473233375E-16,0.));
#485=DIRECTION('',(0.,0.,1.));
#486=DIRECTION('center_axis',(0.707106781186548,0.707106781186548,0.));
#487=DIRECTION('ref_axis',(0.,0.,-1.));
#488=DIRECTION('',(0.707106781186548,-0.707106781186548,0.));
#489=DIRECTION('',(0.,0.,-1.));
#490=DIRECTION('center_axis',(0.707106781186548,-0.707106781186548,0.));
#491=DIRECTION('ref_axis',(0.,0.,-1.));
#492=DIRECTION('',(0.,0.,1.));
#493=DIRECTION('',(-0.707106781186548,-0.707106781186548,0.));
#494=DIRECTION('',(0.,0.,-1.));
#495=DIRECTION('center_axis',(2.22044604925031E-16,-1.,0.));
#496=DIRECTION('ref_axis',(1.,2.22044604925031E-16,0.));
#497=DIRECTION('',(1.,2.22044604925031E-16,0.));
#498=DIRECTION('',(0.,0.,1.));
#499=DIRECTION('center_axis',(-0.707106781186548,-0.707106781186548,0.));
#500=DIRECTION('ref_axis',(0.,0.,1.));
#501=DIRECTION('',(-0.707106781186548,0.707106781186548,0.));
#502=DIRECTION('',(0.,0.,-1.));
#503=DIRECTION('center_axis',(1.,0.,0.));
#504=DIRECTION('ref_axis',(0.,0.,-1.));
#505=DIRECTION('center_axis',(1.,0.,0.));
#506=DIRECTION('ref_axis',(0.,0.,-1.));
#507=DIRECTION('',(0.707106781186548,8.65956056235493E-17,0.707106781186548));
#508=DIRECTION('center_axis',(-1.,0.,0.));
#509=DIRECTION('ref_axis',(0.,0.,-1.));
#510=DIRECTION('center_axis',(-1.,0.,0.));
#511=DIRECTION('ref_axis',(0.,0.,-1.));
#512=DIRECTION('',(1.,0.,0.));
#513=DIRECTION('center_axis',(1.,0.,0.));
#514=DIRECTION('ref_axis',(0.,0.,-1.));
#515=DIRECTION('center_axis',(1.,0.,0.));
#516=DIRECTION('ref_axis',(0.,0.,-1.));
#517=DIRECTION('center_axis',(1.,0.,0.));
#518=DIRECTION('ref_axis',(0.,0.,-1.));
#519=DIRECTION('center_axis',(1.,0.,0.));
#520=DIRECTION('ref_axis',(0.,0.,-1.));
#521=DIRECTION('center_axis',(1.,0.,0.));
#522=DIRECTION('ref_axis',(0.,0.,-1.));
#523=DIRECTION('',(0.707106781186548,8.65956056235493E-17,0.707106781186548));
#524=DIRECTION('center_axis',(-1.,0.,0.));
#525=DIRECTION('ref_axis',(0.,0.,-1.));
#526=DIRECTION('center_axis',(-1.,0.,0.));
#527=DIRECTION('ref_axis',(0.,0.,-1.));
#528=DIRECTION('',(1.,0.,0.));
#529=DIRECTION('center_axis',(1.,0.,0.));
#530=DIRECTION('ref_axis',(0.,0.,-1.));
#531=DIRECTION('center_axis',(1.,0.,0.));
#532=DIRECTION('ref_axis',(0.,0.,-1.));
#533=DIRECTION('center_axis',(1.,0.,0.));
#534=DIRECTION('ref_axis',(0.,0.,-1.));
#535=DIRECTION('center_axis',(-5.86256382640342E-17,0.,1.));
#536=DIRECTION('ref_axis',(-0.999989209207644,-0.00464558589107661,0.));
#537=DIRECTION('center_axis',(-5.86256382640346E-17,0.,1.));
#538=DIRECTION('ref_axis',(-0.999989209207644,-0.00464558589107796,0.));
#539=DIRECTION('center_axis',(1.,0.,0.));
#540=DIRECTION('ref_axis',(0.,0.,1.));
#541=DIRECTION('center_axis',(1.,0.,0.));
#542=DIRECTION('ref_axis',(0.,0.,1.));
#543=DIRECTION('',(-1.,0.,0.));
#544=DIRECTION('center_axis',(-1.,0.,0.));
#545=DIRECTION('ref_axis',(0.,0.,1.));
#546=DIRECTION('center_axis',(1.,0.,0.));
#547=DIRECTION('ref_axis',(0.,0.,-1.));
#548=DIRECTION('center_axis',(1.,0.,0.));
#549=DIRECTION('ref_axis',(0.,0.,1.));
#550=DIRECTION('center_axis',(1.,0.,0.));
#551=DIRECTION('ref_axis',(0.,0.,1.));
#552=DIRECTION('',(-1.,0.,0.));
#553=DIRECTION('center_axis',(-1.,0.,0.));
#554=DIRECTION('ref_axis',(0.,0.,1.));
#555=DIRECTION('center_axis',(1.,0.,0.));
#556=DIRECTION('ref_axis',(0.,0.,-1.));
#557=DIRECTION('center_axis',(0.,0.,1.));
#558=DIRECTION('ref_axis',(1.,0.,0.));
#559=DIRECTION('center_axis',(0.,0.,-1.));
#560=DIRECTION('ref_axis',(1.,0.,0.));
#561=DIRECTION('center_axis',(0.,0.,-1.));
#562=DIRECTION('ref_axis',(1.,0.,0.));
#563=DIRECTION('',(0.,0.,-1.));
#564=DIRECTION('center_axis',(0.,0.,1.));
#565=DIRECTION('ref_axis',(1.,0.,0.));
#566=DIRECTION('center_axis',(0.,0.,-1.));
#567=DIRECTION('ref_axis',(1.,0.,0.));
#568=DIRECTION('center_axis',(0.,0.,-1.));
#569=DIRECTION('ref_axis',(1.,0.,0.));
#570=DIRECTION('',(0.,0.,-1.));
#571=DIRECTION('center_axis',(-1.,0.,0.));
#572=DIRECTION('ref_axis',(0.,-1.,0.));
#573=DIRECTION('',(0.,-1.,0.));
#574=DIRECTION('center_axis',(1.,0.,0.));
#575=DIRECTION('ref_axis',(0.,1.,0.));
#576=DIRECTION('',(0.,1.,0.));
#577=DIRECTION('center_axis',(0.,0.,1.));
#578=DIRECTION('ref_axis',(1.,0.,0.));
#579=CARTESIAN_POINT('',(0.,0.,0.));
#580=CARTESIAN_POINT('Origin',(-14.75,9.74999999999999,0.));
#581=CARTESIAN_POINT('',(-14.5,10.,-4.5));
#582=CARTESIAN_POINT('',(-15.,9.49999999999999,-4.5));
#583=CARTESIAN_POINT('',(-13.5,11.,-4.5));
#584=CARTESIAN_POINT('',(-15.,9.49999999999999,4.5));
#585=CARTESIAN_POINT('',(-15.,9.49999999999999,0.));
#586=CARTESIAN_POINT('',(-14.5,10.,4.5));
#587=CARTESIAN_POINT('',(-13.5,11.,4.5));
#588=CARTESIAN_POINT('',(-14.5,10.,0.));
#589=CARTESIAN_POINT('Origin',(2.22044604925031E-15,0.,-4.5));
#590=CARTESIAN_POINT('',(14.5,10.,-4.5));
#591=CARTESIAN_POINT('',(-15.,10.,-4.5));
#592=CARTESIAN_POINT('',(15.,9.5,-4.5));
#593=CARTESIAN_POINT('',(13.5,11.,-4.5));
#594=CARTESIAN_POINT('',(15.,-9.5,-4.5));
#595=CARTESIAN_POINT('',(15.,10.,-4.5));
#596=CARTESIAN_POINT('',(14.5,-10.,-4.5));
#597=CARTESIAN_POINT('',(13.5,-11.,-4.5));
#598=CARTESIAN_POINT('',(-14.5,-10.,-4.5));
#599=CARTESIAN_POINT('',(15.,-10.,-4.5));
#600=CARTESIAN_POINT('',(-15.,-9.5,-4.5));
#601=CARTESIAN_POINT('',(-13.5,-11.,-4.5));
#602=CARTESIAN_POINT('',(-15.,-10.,-4.5));
#603=CARTESIAN_POINT('',(-8.6,-1.95943487863577E-16,-4.5));
#604=CARTESIAN_POINT('Origin',(-7.,0.,-4.5));
#605=CARTESIAN_POINT('',(-1.6,-1.95943487863577E-16,-4.5));
#606=CARTESIAN_POINT('Origin',(2.22044604925031E-15,0.,-4.5));
#607=CARTESIAN_POINT('Origin',(15.,10.,0.));
#608=CARTESIAN_POINT('',(14.5,10.,4.5));
#609=CARTESIAN_POINT('',(-15.,10.,4.5));
#610=CARTESIAN_POINT('',(14.5,10.,0.));
#611=CARTESIAN_POINT('Origin',(14.75,9.75,0.));
#612=CARTESIAN_POINT('',(15.,9.5,4.5));
#613=CARTESIAN_POINT('',(13.5,11.,4.5));
#614=CARTESIAN_POINT('',(15.,9.5,0.));
#615=CARTESIAN_POINT('Origin',(14.75,-9.75,0.));
#616=CARTESIAN_POINT('',(15.,-9.5,4.5));
#617=CARTESIAN_POINT('',(15.,-9.5,0.));
#618=CARTESIAN_POINT('',(14.5,-10.,4.5));
#619=CARTESIAN_POINT('',(13.5,-11.,4.5));
#620=CARTESIAN_POINT('',(14.5,-10.,0.));
#621=CARTESIAN_POINT('Origin',(-15.,-10.,0.));
#622=CARTESIAN_POINT('',(-14.5,-10.,4.5));
#623=CARTESIAN_POINT('',(15.,-10.,4.5));
#624=CARTESIAN_POINT('',(-14.5,-10.,0.));
#625=CARTESIAN_POINT('Origin',(-14.75,-9.75,0.));
#626=CARTESIAN_POINT('',(-15.,-9.5,4.5));
#627=CARTESIAN_POINT('',(-13.5,-11.,4.5));
#628=CARTESIAN_POINT('',(-15.,-9.5,0.));
#629=CARTESIAN_POINT('Origin',(-19.85,4.,-1.66533453693773E-15));
#630=CARTESIAN_POINT('',(-20.,4.,3.05));
#631=CARTESIAN_POINT('Origin',(-20.,4.,-1.66533453693773E-15));
#632=CARTESIAN_POINT('',(-19.7,4.,3.35));
#633=CARTESIAN_POINT('',(-19.85,4.,3.2));
#634=CARTESIAN_POINT('Origin',(-19.7,4.,-1.66533453693773E-15));
#635=CARTESIAN_POINT('Origin',(-15.,4.,-1.66533453693773E-15));
#636=CARTESIAN_POINT('',(-15.,4.,3.35));
#637=CARTESIAN_POINT('',(-15.,4.,3.35));
#638=CARTESIAN_POINT('Origin',(-15.,4.,-1.66533453693773E-15));
#639=CARTESIAN_POINT('Origin',(-20.,4.,-1.72412552273829E-15));
#640=CARTESIAN_POINT('',(-20.,7.,0.));
#641=CARTESIAN_POINT('Origin',(-20.,4.,0.));
#642=CARTESIAN_POINT('Origin',(-19.85,-4.,5.55111512312578E-16));
#643=CARTESIAN_POINT('',(-20.,-4.,3.05));
#644=CARTESIAN_POINT('Origin',(-20.,-4.,5.55111512312578E-16));
#645=CARTESIAN_POINT('',(-19.7,-4.,3.35));
#646=CARTESIAN_POINT('',(-19.85,-4.,3.2));
#647=CARTESIAN_POINT('Origin',(-19.7,-4.,5.55111512312578E-16));
#648=CARTESIAN_POINT('Origin',(-15.,-4.,5.55111512312578E-16));
#649=CARTESIAN_POINT('',(-15.,-4.,3.35));
#650=CARTESIAN_POINT('',(-15.,-4.,3.35));
#651=CARTESIAN_POINT('Origin',(-15.,-4.,5.55111512312578E-16));
#652=CARTESIAN_POINT('Origin',(-20.,-4.,4.22414605832669E-16));
#653=CARTESIAN_POINT('',(-20.,-0.999999999999999,0.));
#654=CARTESIAN_POINT('Origin',(-20.,-4.,0.));
#655=CARTESIAN_POINT('Origin',(-5.14999999999989,-4.,0.));
#656=CARTESIAN_POINT('Origin',(-5.15000000000001,4.,0.));
#657=CARTESIAN_POINT('Origin',(15.,4.,1.66533453693773E-15));
#658=CARTESIAN_POINT('',(75.,4.,-1.1));
#659=CARTESIAN_POINT('Origin',(75.,4.,1.66533453693773E-15));
#660=CARTESIAN_POINT('',(15.,4.,-1.1));
#661=CARTESIAN_POINT('',(15.,4.,-1.1));
#662=CARTESIAN_POINT('Origin',(15.,4.,1.66533453693773E-15));
#663=CARTESIAN_POINT('Origin',(75.,4.,1.78228755468913E-15));
#664=CARTESIAN_POINT('Origin',(15.,-4.,-5.55111512312578E-16));
#665=CARTESIAN_POINT('',(75.,-4.,-1.1));
#666=CARTESIAN_POINT('Origin',(75.,-4.,-5.55111512312578E-16));
#667=CARTESIAN_POINT('',(15.,-4.,-1.1));
#668=CARTESIAN_POINT('',(15.,-4.,-1.1));
#669=CARTESIAN_POINT('Origin',(15.,-4.,-5.55111512312578E-16));
#670=CARTESIAN_POINT('Origin',(75.,-4.,-4.80360505388805E-16));
#671=CARTESIAN_POINT('Origin',(-7.,0.,-32.6618083521241));
#672=CARTESIAN_POINT('',(-5.4,0.,4.5));
#673=CARTESIAN_POINT('',(-8.6,-1.95943487863577E-16,4.5));
#674=CARTESIAN_POINT('Origin',(-7.,0.,4.5));
#675=CARTESIAN_POINT('Origin',(-7.,0.,4.5));
#676=CARTESIAN_POINT('',(-8.6,-1.95943487863577E-16,-32.6618083521241));
#677=CARTESIAN_POINT('Origin',(2.22044604925031E-15,0.,-32.6618083521241));
#678=CARTESIAN_POINT('',(1.6,0.,4.5));
#679=CARTESIAN_POINT('',(-1.6,-1.95943487863577E-16,4.5));
#680=CARTESIAN_POINT('Origin',(2.22044604925031E-15,0.,4.5));
#681=CARTESIAN_POINT('Origin',(2.22044604925031E-15,0.,4.5));
#682=CARTESIAN_POINT('',(-1.6,-1.95943487863577E-16,-32.6618083521241));
#683=CARTESIAN_POINT('Origin',(-15.,10.,0.));
#684=CARTESIAN_POINT('',(-15.,-10.,4.5));
#685=CARTESIAN_POINT('Origin',(15.,-10.,0.));
#686=CARTESIAN_POINT('',(15.,10.,4.5));
#687=CARTESIAN_POINT('Origin',(2.22044604925031E-15,0.,4.5));
#688=UNCERTAINTY_MEASURE_WITH_UNIT(LENGTH_MEASURE(0.01),#692,
'DISTANCE_ACCURACY_VALUE',
'Maximum model space distance between geometric entities at asserted c
onnectivities');
#689=UNCERTAINTY_MEASURE_WITH_UNIT(LENGTH_MEASURE(0.01),#692,
'DISTANCE_ACCURACY_VALUE',
'Maximum model space distance between geometric entities at asserted c
onnectivities');
#690=(
GEOMETRIC_REPRESENTATION_CONTEXT(3)
GLOBAL_UNCERTAINTY_ASSIGNED_CONTEXT((#688))
GLOBAL_UNIT_ASSIGNED_CONTEXT((#692,#695,#694))
REPRESENTATION_CONTEXT('','3D')
);
#691=(
GEOMETRIC_REPRESENTATION_CONTEXT(3)
GLOBAL_UNCERTAINTY_ASSIGNED_CONTEXT((#689))
GLOBAL_UNIT_ASSIGNED_CONTEXT((#692,#695,#694))
REPRESENTATION_CONTEXT('','3D')
);
#692=(
LENGTH_UNIT()
NAMED_UNIT(*)
SI_UNIT(.MILLI.,.METRE.)
);
#693=(
LENGTH_UNIT()
NAMED_UNIT(*)
SI_UNIT(.CENTI.,.METRE.)
);
#694=(
NAMED_UNIT(*)
SI_UNIT($,.STERADIAN.)
SOLID_ANGLE_UNIT()
);
#695=(
NAMED_UNIT(*)
PLANE_ANGLE_UNIT()
SI_UNIT($,.RADIAN.)
);
#696=SHAPE_DEFINITION_REPRESENTATION(#697,#698);
#697=PRODUCT_DEFINITION_SHAPE('',$,#700);
#698=SHAPE_REPRESENTATION('',(#418),#690);
#699=PRODUCT_DEFINITION_CONTEXT('part definition',#704,'design');
#700=PRODUCT_DEFINITION('GPF-D023-LF-2.0','GPF-D024-ST-2.0',#701,#699);
#701=PRODUCT_DEFINITION_FORMATION('',$,#706);
#702=PRODUCT_RELATED_PRODUCT_CATEGORY('GPF-D024-ST-2.0',
'GPF-D024-ST-2.0',(#706));
#703=APPLICATION_PROTOCOL_DEFINITION('international standard',
'automotive_design',2009,#704);
#704=APPLICATION_CONTEXT(
'Core Data for Automotive Mechanical Design Process');
#705=PRODUCT_CONTEXT('part definition',#704,'mechanical');
#706=PRODUCT('GPF-D023-LF-2.0','GPF-D024-ST-2.0',$,(#705));
#707=PRESENTATION_STYLE_ASSIGNMENT((#709));
#708=PRESENTATION_STYLE_ASSIGNMENT((#710));
#709=SURFACE_STYLE_USAGE(.BOTH.,#711);
#710=SURFACE_STYLE_USAGE(.BOTH.,#712);
#711=SURFACE_SIDE_STYLE('',(#713));
#712=SURFACE_SIDE_STYLE('',(#714));
#713=SURFACE_STYLE_FILL_AREA(#715);
#714=SURFACE_STYLE_FILL_AREA(#716);
#715=FILL_AREA_STYLE('',(#717));
#716=FILL_AREA_STYLE('',(#718));
#717=FILL_AREA_STYLE_COLOUR('',#719);
#718=FILL_AREA_STYLE_COLOUR('',#720);
#719=COLOUR_RGB('',0.749019607843137,0.749019607843137,0.749019607843137);
#720=COLOUR_RGB('',0.8,0.,0.);
ENDSEC;
END-ISO-10303-21;
